Thrice - All Thats Left Chords & Tabs

 

All Thats Left Chords & Tabs

Thrice Chords & Tabs

Version: 4 Type: Tab 0 ratings
1 star 2 stars 3 stars 4 stars 5 stars
comments

All Thats Left Tab

   
-------------------------------------------------------------------------------
			     All Thats Left - Thrice
-------------------------------------------------------------------------------
Tabbed by:Eric Pihl	
Email:

Tuning:dropped d
Intro- 2 times
e|---------------------------------------------------------------------------|
B|---------------------------------------------------------------------------|
G|---------------------------------------------------------------------------|
D|------5--------3----------55-33-55-33-------5-------3------------8----7----|
A|--5--------5--------5---6-55-33-55-33---5-------5-------5---8--------------|
E|5---5----5---5----5---5---55-33-55-33-5---5---5---5---5---5---55---55------|
2 times
e|---------------------------------------------------------------------------|
B|---------------------------------------------------------------------------|
G|---------------------------------------------------------------------------|
D|55555555333333331111111133333333-------------------------------------------|
A|55555555333333331111111133333333-------------------------------------------|
E|55555555333333331111111133333333-------------------------------------------|
Verse- 4 times
e|---------------------------------------------------------------------------|
B|---------------------------------------------------------------------------|
G|---12----10----8-----------------------------------------------------------|
D|55----55----55----55-33-55-33----------------------------------------------|
A|55-10-55-8--55-6--55-33-55-33----------------------------------------------|
E|55----55----55----55-33-55-33----------------------------------------------|
Chorus
e|---------------------------------------------------------------------------|
B|---------------------------------------------------------------------------|
G|---------------------------------------------------------------------------|
D|111133333355555555111133333355-33-55-33111133333355555555111133333355555555|
A|111133333355555555111133333355-33-55-33111133333355555555111133333355555555|
E|111133333355555555111133333355-33-55-33111133333355555555111133333355555555|
[ Tab from: http://www.guitartabs.cc/tabs/t/thrice/all_thats_left_tab_ver_4.html ]
Verse- 4 times
e|---------------------------------------------------------------------------|
B|---------------------------------------------------------------------------|
G|---12----10----8-----------------------------------------------------------|
D|55----55----55----55-33-55-33----------------------------------------------|
A|55-10-55-8--55-6--55-33-55-33----------------------------------------------|
E|55----55----55----55-33-55-33----------------------------------------------|

Chorus
e|---------------------------------------------------------------------------|
B|---------------------------------------------------------------------------|
G|---------------------------------------------------------------------------|
D|111133333355555555111133333355-33-55-33111133333355555555111133333355555555|
A|111133333355555555111133333355-33-55-33111133333355555555111133333355555555|
E|111133333355555555111133333355-33-55-33111133333355555555111133333355555555|
Only one time 
e|---------------------------------------------------------------------------|
B|---------------------------------------------------------------------------|
G|---------------------------------------------------------------------------|
D|------5--------3----------55-33-55-33-------5-------3------------8----7----|
A|--5--------5--------5---6-55-33-55-33---5-------5-------5---8--------------|
E|5---5----5---5----5---5---55-33-55-33-5---5---5---5---5---5---55---55------|

2 times
e|---------------------------------------------------------------------------|
B|---------------------------------------------------------------------------|
G|---------------------------------------------------------------------------|
D|55555555333333331111111133333333-------------------------------------------|
A|55555555333333331111111133333333-------------------------------------------|
E|55555555333333331111111133333333-------------------------------------------|

Chorus- 4 times
e|---------------------------------------------------------------------------|
B|---------------------------------------------------------------------------|
G|---------------------------------------------------------------------------|
D|111133333355555555111133333355-33-55-33111133333355555555111133333355555555|
A|111133333355555555111133333355-33-55-33111133333355555555111133333355555555|
E|111133333355555555111133333355-33-55-33111133333355555555111133333355555555|

| /  slide up
| \  slide down
| h  hammer-on
| p  pull-off
| ~  vibrato
| +  harmonic
| x  Mute note
===============================================================================
Comments