Thrice - All Thats Left Chords & Tabs

 

All Thats Left Chords & Tabs

Thrice Chords & Tabs

Version: 3 Type: Tab 0 ratings
1 star 2 stars 3 stars 4 stars 5 stars
comments

All Thats Left Tab

-----------------------------------------------------------------------------
			     thrice- all that's left
-----------------------------------------------------------------------------
Tabbed by: steph
Email: stephan762@aol.com

**listen to song for strumming patterns**

Tuning: drop d

intro x2 (0:07 - 0:29)
e|-------------------------------------------------------------------------|
B|-------------------------------------------------------------------------|
G|-------------------------------------------------------------------------|
D|---------5-----------8-----------6---------------------------------------|
A|----5-----------5-----------5--------------------------------------------|
D|-5----5------5-----5-----5----5-----5-5-5-3-5-5-5-3----------------------|

e|-------------------------------------------------------------------------|
B|-------------------------------------------------------------------------|
G|-------------------------------------------------------------------------|
D|---------5-----------8-----------6------8-------7------------------------|
A|----5-----------5-----------5---------6---6---6---6----------------------|
D|-5----5------5-----5-----5----5-----5-------5----------------------------|

bridge x1 (0:30 - 0:39)
e|-------------------------------------------------------------------------|
B|-------------------------------------------------------------------------|
G|-------------------------------------------------------------------------|
D|-5------3------3------3------5------3------3------3----------------------|
A|-5------5------1------3------5------5------1------3----------------------|
D|-5------3------1------3------5------3------1------3----------------------|

verse x2 (0:40 - 1:00)
e|-------------------------------------------------------------------------|
B|-------------------------------------------------------------------------|
G|---------12----------10----------8--------------------------12---------10|
D|-5-5-5-------5-5-5-------5-5-5------5-5-5-3-5-5-5-3--5-5-5------5-5-5----|
A|-5-5-5---10--5-5-5---8---5-5-5---6--5-5-5-3-5-5-5-3--5-5-5--10--5-5-5--8-|
D|-5-5-5-------5-5-5-------5-5-5------5-5-5-3-5-5-5-3--5-5-5------5-5-5----|

e|-------------------------------------------------------------------------|
B|-------------------------------------------------------------------------|
G|--------8----------------------------------------------------------------|
D|-5-5-5-----8----7--------------------------------------------------------|
A|-5-5-5--6--6----6--------------------------------------------------------|
D|-5-5-5-----5----5--------------------------------------------------------|

chorus  (1:01 - 1:19) (guitar 1)
e|-------------------------------------------------------------------------|
B|-------------------------------------------------------------------------|
G|-------------------------------------------------------------------------|
D|-1---3---5---1---3---5---3---3---1---5---3-------------------------------|
A|-1---3---5---1---3---5---1---3---1---5---3-------------------------------|
D|-1---3---5---1---3---5-------3---1---5---3-------------------------------|

chorus (guitar 2) 
e|---5---5--6p5------5----6p5-------5---5---6p5-------5---5--6p5-----------|
B|-3---3--------6-3----3------6--3----3---------6--3----3---------6-3------|
G|-------------------------------------------------------------------------|
D|-------------------------------------------------------------------------|
A|-------------------------------------------------------------------------|
D|-------------------------------------------------------------------------|

e|-5---5--6p5---------5---5--6p5---------5-----6p5-------------------------|
B|---3---------6--3-----3--------6--3------3---------6h8-------------------|
G|-------------------------------------------------------------------------|
D|-------------------------------------------------------------------------|
A|-------------------------------------------------------------------------|
D|-------------------------------------------------------------------------|

verse x2 (1:20 - 1:40)
e|-------------------------------------------------------------------------|
B|-------------------------------------------------------------------------|
G|---------12----------10----------8--------------------------12---------10|
D|-5-5-5-------5-5-5-------5-5-5------5-5-5-3-5-5-5-3--5-5-5------5-5-5----|
A|-5-5-5---10--5-5-5---8---5-5-5---6--5-5-5-3-5-5-5-3--5-5-5--10--5-5-5--8-|
D|-5-5-5-------5-5-5-------5-5-5------5-5-5-3-5-5-5-3--5-5-5------5-5-5----|
[ Tab from: http://www.guitartabs.cc/tabs/t/thrice/all_thats_left_tab_ver_3.html ]
e|-------------------------------------------------------------------------|
B|-------------------------------------------------------------------------|
G|--------8----------------------------------------------------------------|
D|-5-5-5-----8----7--------------------------------------------------------|
A|-5-5-5--6--6----6--------------------------------------------------------|
D|-5-5-5-----5----5--------------------------------------------------------|

chorus  (1:41 - 2:02) (guitar 1)
e|-------------------------------------------------------------------------|
B|-------------------------------------------------------------------------|
G|-------------------------------------------------------------------------|
D|-1---3---5---1---3---5---3---3---1---5---3---4---5-----------------------|
A|-1---3---5---1---3---5---1---3---1---5---3---4---5-----------------------|
D|-1---3---5---1---3---5-------3---1---5---3---4---5-----------------------|

chorus (guitar 2) 
e|---5---5--6p5------5----6p5-------5---5---6p5-------5---5--6p5-----------|
B|-3---3--------6-3----3------6--3----3---------6--3----3---------6-3------|
G|-------------------------------------------------------------------------|
D|-------------------------------------------------------------------------|
A|-------------------------------------------------------------------------|
D|-------------------------------------------------------------------------|

e|-5---5--6p5---------5---5--6p5---------5-----6p5-------------------------|
B|---3---------6--3-----3--------6--3------3---------6h8-------------------|
G|-------------------------------------------------------------------------|
D|-------------------------------------------------------------------------|
A|-------------------------------------------------------------------------|
D|-------------------------------------------------------------------------|

intro x2 (2:07 - 2:18)
e|-------------------------------------------------------------------------|
B|-------------------------------------------------------------------------|
G|-------------------------------------------------------------------------|
D|---------5-----------8-----------6---------------------------------------|
A|----5-----------5-----------5--------------------------------------------|
D|-5----5------5-----5-----5----5-----5-5-5-3-5-5-5-3----------------------|

e|-------------------------------------------------------------------------|
B|-------------------------------------------------------------------------|
G|-------------------------------------------------------------------------|
D|---------5-----------8-----------6------8-------7------------------------|
A|----5-----------5-----------5---------6---6---6---6----------------------|
D|-5----5------5-----5-----5----5-----5-------5----------------------------|

verse x2 (2:19 - 2:38)
e|-------------------------------------------------------------------------|
B|-------------------------------------------------------------------------|
G|---------12----------10----------8--------------------------12---------10|
D|-5-5-5-------5-5-5-------5-5-5------5-5-5-3-5-5-5-3--5-5-5------5-5-5----|
A|-5-5-5---10--5-5-5---8---5-5-5---6--5-5-5-3-5-5-5-3--5-5-5--10--5-5-5--8-|
D|-5-5-5-------5-5-5-------5-5-5------5-5-5-3-5-5-5-3--5-5-5------5-5-5----|

e|-------------------------------------------------------------------------|
B|-------------------------------------------------------------------------|
G|--------8----------------------------------------------------------------|
D|-5-5-5-----8----7--------------------------------------------------------|
A|-5-5-5--6--6----6--------------------------------------------------------|
D|-5-5-5-----5----5--------------------------------------------------------|

chorus  (2:39 - 3:20) (guitar 1)
e|-------------------------------------------------------------------------|
B|-------------------------------------------------------------------------|
G|-------------------------------------------------------------------------|
D|-1---3---5---1---3---5---3---3---1---5---3---1---3---5---1---3---5-------|
A|-1---3---5---1---3---5---1---3---1---5---3---1---3---5---1---3---5-------|
D|-1---3---5---1---3---5-------3---1---5---3---1---3---5---1---3---5-------|

e|-------------------------------------------------------------------------|
B|-------------------------------------------------------------------------|
G|-------------------------------------------------------------------------|
D|-3---3---1---5---3---1---5---3---1---5---3---4--5------------------------|
A|-1---3---1---5---3---1---5---3---1---5---3---4--5------------------------|
D|-----3---1---5---3---1---5---3---1---5---3---4--5------------------------|
Comments