Thrice - All Thats Left Chords & Tabs

 

All Thats Left Chords & Tabs

Thrice Chords & Tabs

Version: 2 Type: Bass Tab

All Thats Left Bass Tab

   
-------------------------------------------------------------------------
                     All That's Left (Bass) - Thrice
-------------------------------------------------------------------------
Tabbed by: Ray Tsai

I couldn't find a tab that had the chorus right so I decided to make one of my own.  
The song was pretty hard to tab because the bass is so quiet in the song and they almost never zoomed
in on the bass during videos.  I can't say it's 100% right but it's better than the others I've seen.

Tuning: Drop C
C G C F

-Intro-
|-----------------------------------------------------------|
|-----------------------------------------------------------| x2
|-----------------------------------------------------------|
|77777777-55555555-33333333-55555555------------------------|

-Verse-
|-----------------------------------------------------------|
|--77--55----------------77--55-----------------------------|
|----------88--------------------88------88-----------------|
|77--77--77--7775-7775-77--77--77---77777--7----------------|

|-----------------------------------------------------------|
|--77--55----------------77--55-----------------------------|
|----------88--------------------88-------------------------|
|77--77--77--7775-7775-77--77--77---7777777-----------------|

-Chorus-
|-----------------------------------------------------------|
|-----------------------------------------------------------|
|-----------------------------------------------------------|
|3-3333-5-5555-7-7777-5-7777--------------------------------|

|-----------------------------------------------------------|
|-----------------------------------------------------------|
|-----------------------------------------------------------|
|3-3333-5-5555-777-5-777-5-777-5-777-5----------------------|

|-----------------------------------------------------------|
|------------------15p14------------------------------------|
|-----------------------15----------------------------------|
|10-101010-12-1212--------3-333-3-333-3-333-5-555-----------|

-Verse-
|-----------------------------------------------------------|
|--77--55----------------77--55-----------------------------|
|----------88--------------------88------88-----------------|
|77--77--77--7775-7775-77--77--77--777777--7----------------|

|-----------------------------------------------------------|
|--77--55----------------77--55-----------------------------|
|----------88--------------------88-------------------------|
|77--77--77--7775-7775-77--77--77--777777777----------------|

-Chorus-
|-----------------------------------------------------------|
|-----------------------------------------------------------|
|-----------------------------------------------------------|
|3-3333-5-5555-7-7777-5-7777--------------------------------|
[ Tab from: http://www.guitartabs.cc/tabs/t/thrice/all_thats_left_btab_ver_2.html ]
|-----------------------------------------------------------|
|-----------------------------------------------------------|
|-----------------------------------------------------------|
|3-3333-5-5555-777-5-777-5-777-5-777-5----------------------|

|-----------------------------------------------------------|
|----------------------15h14--------------------------------|
|---------------------------15------------------------------|
|10-10101010-12-121212--------3-3333-3-3333-3-3333-5-5555---|

-Fill-
|-----------------------------------------------------------|
|-----------------------------------------------------------|
|-----------------------------------------------------------|
|6666666666666666-7~----------------------------------------|

-Bridge-
|-----------------------------------------------------------|
|-----------------------------------------------------------|
|-----------------------------------------------------------|
|7777-5555-3333-5555-7777-5555-3333-5555--------------------|

|-----------------------------------------------------------|
|-----------------------------------------------------------|
|-----------------------------------------------------------|
|7777-5555-3333-5555-7777-5555-3333-5-55555555555555--------|

-Chorus-
|-----------------------------------------------------------|
|-----------------------------------------------------------|
|-----------------------------------------------------------|
|3-3333-5-5555-7-7777-5-7777--------------------------------|

|-----------------------------------------------------------|
|-----------------------------------------------------------|
|-----------------------------------------------------------|
|3-3333-5-5555-777-5-777-5-777-5-777-5----------------------|

|-----------------------------------------------------------|
|----------------------15h14--------------------------------|
|---------------------------15------------------------------|
|10-10101010-12-121212--------3-3333-3-3333-----------------|

|-----------------------------------------------------------|
|-----------------------------------------------------------|
|-----------------------------------------------------------|
|3-3333-5-5555-7-7777-5-7777--------------------------------|

|-----------------------------------------------------------|
|-----------------------------------------------------------|
|-----------------------------------------------------------|
|3-3333-5-5555-777-5-777-5-777-5-777-5----------------------|

|-----------------------------------------------------------|
|----------------------15h14--------------------------------|
|---------------------------15------------------------------|
|10-10101010-12-121212--------3-3333-3-3333-----------------|

-Ending-
|-----------------------------------------------------------|
|-----------------------------------------------------------|
|-----------------------------------------------------------|
|3-3333-5-5555-3-3333-55555-3-3333-6666666666666666-7-------|