Thrice - A Subtle Dagger Chords & Tabs

 

A Subtle Dagger Chords & Tabs

Thrice Chords & Tabs

Version: 1 Type: Bass Tab 0 ratings
1 star 2 stars 3 stars 4 stars 5 stars
comments

A Subtle Dagger Bass Tab

Tuning is 1 1/2 step E string and 1/2 step the rest

Intro
Gb|-----------------------------------------------|
Db|----------8-------8-5-----------8------8-xxx-5-|
Ab|------5h7-------------------5h7----------------|
C#|-2222--------2222------2222--------222---------|

Gb|----------------------|
Db|----------------------|
Ab|----------------------|
C#|-2222-2222-2222-222---|

verse
Gb|--------------------------------|
Db|--------------------555----77-8-|
Ab|-7>-5-3>-3h5h7-0>---------------|
C#|------------------55----77------|

[ Tab from: http://www.guitartabs.cc/tabs/t/thrice/a_subtle_dagger_btab.html ]
Gb|--------------------------------|
Db|--------------------555----77-8-|
Ab|-7>-5-3>-3h5h7-0>---------------|
C#|------------------55----77------|

then back to intro,then verse again

1:04
Gb|----------------------|
Db|----------------------|
Ab|-7~-3~-7~-3~-7-7-7~---|
C#|----------------------|

1:20
Gb|-------------------------|
Db|-------------------------|
Ab|-2>-3>-5>-6>-7>-7-777-77-|
C#|-------------------------|

Gb|-----------------------------------|
Db|---------------------55-44-55-7777-|
Ab|-7777-7777-7777-7777---------------|
C#|-----------------------------------| till the end.
Comments