Thrice - A Living Dance Upon Dead Minds Chords & Tabs

 

A Living Dance Upon Dead Minds Chords & Tabs

Thrice Chords & Tabs

Version: 1 Type: Tab 0 ratings
1 star 2 stars 3 stars 4 stars 5 stars
comments

A Living Dance Upon Dead Minds Tab

e|----------------------------|-----------------------------------|  
B|----------------------------|-----------------------------------|
G|--2-1-----------------------|-----------------------------------|
D|------3-2-0-----------------|-----------------------------------|
A|------------3-2-0-----------|-----------------------------------|
E|------------------4-1-0-----|---------4/5----4-5-5/7----7/8-----|

[ Tab from: http://www.guitartabs.cc/tabs/t/thrice/a_living_dance_upon_dead_minds_tab.html ]
This is the part that justs takes off, do it 4x really fast
e|-16-13----13-------------------------------------|        
B|-------15----15-12-15-12----12-------------------|      
G|-------------------------13----13-10-------------|       
D|-------------------------------------------------|       
A|-------------------------------------------------|
E|-------------------------------------------------|

This is all I know of this song, its a good song by a good band,
hope you guys like it, Ill most likely finish the rest when Im done
taking a dumb
Comments