Threebrain - My Name Is Fishy Chords & Tabs

 

My Name Is Fishy Chords & Tabs

Threebrain Chords & Tabs

Version: 1 Type: Tab 0 ratings
1 star 2 stars 3 stars 4 stars 5 stars
comments

My Name Is Fishy Tab

Three brain
My Name is Fishy
Tabbed by Nathan Kulas

Not many people know about this band, go check em out at www.threebrain.com
This is for all those kiddies that know about em, and like myself could not find
any tabs anywhere. So here it is!  Once you figure the thing out its easy to do,
and this is a great song, fun for kids of all ages!  Check out their music videos
and buy their CDs.  Three Brain rocks!


|-5-|-----5---5---5---5-5-5-x--3--3-----3-3-3-x-2-------|
|-6-|-----6---6---6---6-6-6-x--4--4-----4-4-4-x-3-------|
|-7-|-----7---7---7---7-7-7-x--5--5-----5-5-5-x-4-------|
|-7-|-----7---7---7---7-7-7-x--5--5-----5-5-5-x-4-------|
|-5-|-----5---5---5---5-5-5-x--3--3-----3-3-3-x-2-------|
|-5-|-----5---5---5---5-5-5-x--3--3-----3-3-3-x-2-------|
    What's holding on to me?     I  wanna go


|-2-2-2-2-2-2-2-2-2-2-2-2-2-2-2-2-|
|-3-3-3-3-3-3-3-3-3-3-3-3-3-3-3-3-|
|-4-4-4-4-4-4-4-4-4-4-4-4-4-4-4-4-|
|-4-4-4-4-4-4-4-4-4-4-4-4-4-4-4-4-|
|-2-2-2-2-2-2-2-2-2-2-2-2-2-2-2-2-|
|-2-2-2-2-2-2-2-2-2-2-2-2-2-2-2-2-|
And swim with the other fishies
And swim with the other fishies



|---5--5--5--5-5-5-x-3--3-----3-3-3-x-2-------|
|---6--6--6--6-6-6-x-4--4-----4-4-4-x-3-------|
|---7--7--7--7-7-7-x-5--5-----5-5-5-x-4-------|
|---7--7--7--7-7-7-x-5--5-----5-5-5-x-4-------|
|---5--5--5--5-5-5-x-3--3-----3-3-3-x-2-------|
|---5--5--5--5-5-5-x-3--3-----3-3-3-x-2-------|
I wanna go           swim with the other fishies

|-2-2-2-2-2-2-2-2-2-2-2-2-2-2-2-2-|
|-3-3-3-3-3-3-3-3-3-3-3-3-3-3-3-3-|
|-4-4-4-4-4-4-4-4-4-4-4-4-4-4-4-4-|
|-4-4-4-4-4-4-4-4-4-4-4-4-4-4-4-4-|
|-2-2-2-2-2-2-2-2-2-2-2-2-2-2-2-2-|
|-2-2-2-2-2-2-2-2-2-2-2-2-2-2-2-2-|
You fucking octopus.  Fuck you.
[ Tab from: http://www.guitartabs.cc/tabs/t/threebrain/my_name_is_fishy_tab.html ]
|---5-5-5-5-5-5-5-------3--3--3---3-3-3-2-------|
|---6-6-6-6-6-6-6-------4--4--4---4-4-4-3-------|
|---7-7-7-7-7-7-7-7/8/7-5--5--5---5-5-5-4-------|
|---7-7-7-7-7-7-7-7/8/7-5--5--5---5-5-5-4-------|
|---5-5-5-5-5-5-5-------3--3--3---3-3-3-2-------|
|---5-5-5-5-5-5-5-------3--3--3---3-3-3-2-------|
Let me go               I want to swim

|-2-2-2-2-2-2-2-2-2-2-2-2-2-2-2-2-|
|-3-3-3-3-3-3-3-3-3-3-3-3-3-3-3-3-|
|-4-4-4-4-4-4-4-4-4-4-4-4-4-4-4-4-|
|-4-4-4-4-4-4-4-4-4-4-4-4-4-4-4-4-|
|-2-2-2-2-2-2-2-2-2-2-2-2-2-2-2-2-|
|-2-2-2-2-2-2-2-2-2-2-2-2-2-2-2-2-|
Free like a slut    free like a dirty slut

|---5--5--5--5-5-5-x-3--3-----3-3-3-x-2-------|
|---6--6--6--6-6-6-x-4--4-----4-4-4-x-3-------|
|---7--7--7--7-7-7-x-5--5-----5-5-5-x-4-------|
|---7--7--7--7-7-7-x-5--5-----5-5-5-x-4-------|
|---5--5--5--5-5-5-x-3--3-----3-3-3-x-2-------|
|---5--5--5--5-5-5-x-3--3-----3-3-3-x-2-------|
Octopus                   Go fuck yourself

|-2-2-2-2-2-2-2-2-2-2-2-2-2-2-2-2-|
|-3-3-3-3-3-3-3-3-3-3-3-3-3-3-3-3-|
|-4-4-4-4-4-4-4-4-4-4-4-4-4-4-4-4-|
|-4-4-4-4-4-4-4-4-4-4-4-4-4-4-4-4-|
|-2-2-2-2-2-2-2-2-2-2-2-2-2-2-2-2-|
|-2-2-2-2-2-2-2-2-2-2-2-2-2-2-2-2-|
 Fishy    FISHY    FISHY

|---5-5-5-5-5-5-5-------3--3--3---3-3-3-2-------|
|---6-6-6-6-6-6-6-------4--4--4---4-4-4-3-------|
|---7-7-7-7-7-7-7-7/8/7-5--5--5---5-5-5-4-------|
|---7-7-7-7-7-7-7-7/8/7-5--5--5---5-5-5-4-------|
|---5-5-5-5-5-5-5-------3--3--3---3-3-3-2-------|
|---5-5-5-5-5-5-5-------3--3--3---3-3-3-2-------|
My name is fishy        and I like to swim..

|-2-2-2-2-2-2-2-2-2-2-2-2-2-2-2-2-|
|-3-3-3-3-3-3-3-3-3-3-3-3-3-3-3-3-|
|-4-4-4-4-4-4-4-4-4-4-4-4-4-4-4-4-|
|-4-4-4-4-4-4-4-4-4-4-4-4-4-4-4-4-|
|-2-2-2-2-2-2-2-2-2-2-2-2-2-2-2-2-|
|-2-2-2-2-2-2-2-2-2-2-2-2-2-2-2-2-|
 in the sea    in the sea!

|---5--5--5--5-5-5--3--3-----3-3--------3-----|
|---6--6--6--6-6-6--4--4-----4-4--------4-----|
|---7--7--7--7-7-7--5--5-----5-5--------5-----|
|---7--7--7--7-7-7--5--5-----5-5--------5-----|
|---5--5--5--5-5-5--3--3-----3-3--------3-----|
|---5--5--5--5-5-5--3--3-----3-3--------3-----|
I'm the fishy          I'm the fishy
Comments