Three Dog Night - Mama Told Me Not To Come Chords & Tabs

 

Three Dog Night Chords & Tabs

Version: 1 Type: Bass Tab 0 ratings
1 star 2 stars 3 stars 4 stars 5 stars
comments

Mama Told Me Not To Come Bass Tab

INTRO
G----||----------------------------------------------||
D----||*--------------------------------------------*||
A----||*-------3-X-3-4-X-4-5-X/17-------------------*||
E----||--3-X-3---------------------------------------||
[ Tab from: http://www.guitartabs.cc/tabs/t/three_dog_night/mama_told_me_not_to_come_btab.html ]
VERSE                        ETC, ETC AS MANY TIMES AS REQUIRED
G----||----------------------------------------------||
D----||*--------------------------------------------*||
A----||*-------5-X-5-------5------------------------*||
E----||--3-X-3-------3-X-3---------------------------||

CHORUS                         REPEATED, VARY THE LAST "D"
G----||----------------------------------------------||
D----||*--------------------------------------------*||
A----||*-------3-X-3-4-X-4-5-X/17-------------------*||
E----||--3-X-3---------------------------------------||

END ON CHORUS PART, SOMETIMES CHORUS VARIATION CREEPS IN
BUT SLOWER, LOOK OUT FOR IT.
Comments