Three Days Grace - Wake Up Chords & Tabs

 

Wake Up Chords & Tabs

Three Days Grace Chords & Tabs

Version: 3 Type: Tab 0 ratings
1 star 2 stars 3 stars 4 stars 5 stars
comments

Wake Up Tab

artist: THREE DAYS GRACE (a CANADIAN band)
title:  WAKE UP

their self titled, and first album....
this is my first tab so be easy.  awesome riff tho, definitely a keeper!!
any comments, corrections,questions? 
email me!(nick) at... nirvanic420@hotmail.com

Drop D tuning


Intro.  

E|--------------------------------------------
B|--------------------------------------------
G|--------------------------------------------
D|-----------6----7--6---6--------6--7--6-----
A|---------4---4-------4--------4-------------
D|---2/-4--------------------2----------------
  
E|--------------------------------------------
B|--------------------------------------------
G|--------------------------------------------
D|-----------9----7--9-----9----9----7--6~----
A|---------7---7--------(7)--(7)--(7)---------
D|---2/-7-------------------------------------
   
Pre-chorus.
[ Tab from: http://www.guitartabs.cc/tabs/t/three_days_grace/wake_up_tab_ver_3.html ]
E|------------------------------------------------
B|------------------------------------------------
G|--44444444-/-66666666-/-77777777-/-55555555-----
D|--44444444-/-66666666-/-77777777-/-55555555-----
A|--22222222-/-44444444-/-55555555-/-77777777-----
D|--xxxxxxxx-/-xxxxxxxx-/-xxxxxxxx-/-xxxxxxxx-----
   
Chorus.

E|-----------------------------------------------------
B|-----------------------------------------------------
G|-----------------------------------------------------
D|-3-/-5-5--3--5---5-\-3-3-3--3/--8-8-8-8-8--8\-3-3-3--
A|-3-/-5-5--3--5---5-\-3-3-3--3/--8-8-8-8-8--8\-3-3-3--
D|-3-/-5-5--3--5---5-\-3-3-3--3/--8-8-8-8-8--8\-3-3-3--
   

E|------------------------------------------------------
B|------------------------------------------------------
G|------------------------------------------------------
D|-3-/-5-5--3--5---8--8-8-8/--10--10-10-10\--3-3--3--3--
A|-3-/-5-5--3--5---8--8-8-8/--10--10-10-10\--3-3--3--3--
D|-3-/-5-5--3--5---8--8-8-8/--10--10-10-10\--3-3--3--3--
 

see wher you get from that... any confusions email me!!   
Comments