Three Days Grace - Wake Up Chords & Tabs

 

Wake Up Chords & Tabs

Three Days Grace Chords & Tabs

Version: 2 Type: Bass Tab 0 ratings
1 star 2 stars 3 stars 4 stars 5 stars
comments

Wake Up Bass Tab

-----------------------------------------------------------------------------
			     Wake Up - Three Days Grace
-----------------------------------------------------------------------------

Tabbed By : Earth_Rave
e-mail: earth_rave@myway.com 

Tuning:EADG

Intro/verse   Play this about 4 times
G|--------------------------------|
D|--------------------------------|
A|----------------00000--0--------|
E|22202--200000--0--------00000--0|

Pre-chorus
G|--------------------------------|
D|--------------------------------|
A|222222224444444455555555--------|
E|------------------------00000000|  2x

Chorus
G|-------------------------------------------------------------|
D|-------------------------------------------------------------|
A|---------------00000--0--------------4444445555555555--------|
E|22202--20-0-0-0--------0-0-0-022202------------------00000000| 2x
[ Tab from: http://www.guitartabs.cc/tabs/t/three_days_grace/wake_up_btab_ver_2.html ]
Intro/verse   Play this about 4 times
G|--------------------------------|
D|--------------------------------|
A|----------------00000--0--------|
E|22202--200000--0--------00000--0|

Pre-chorus
G|--------------------------------|
D|--------------------------------|
A|222222224444444455555555--------|
E|------------------------00000000|  2x

Chorus
G|-------------------------------------------------------------|
D|-------------------------------------------------------------|
A|---------------00000--0--------------4444445555555555--------|
E|22202--20-0-0-0--------0-0-0-022202------------------00000000| 2x

Bridge
G|--------------------------------|
D|--------------------------------|
A|222222224444444455555555--------|
E|------------------------00000000| 4x

Chorus
G|-------------------------------------------------------------|
D|-------------------------------------------------------------|
A|---------------00000--0--------------4444445555555555--------|
E|22202--20-0-0-0--------0-0-0-022202------------------00000000| 2x

Note: In the prechorus, the E sounds an octave higher unless you listen VERY closely
Comments