Three Days Grace - Scared Chords & Tabs

 

Scared Chords & Tabs

Three Days Grace Chords & Tabs

Version: 5 Type: Tab 0 ratings
1 star 2 stars 3 stars 4 stars 5 stars
comments

Scared Tab

Three Days Grace - Scared (studio recording)
Tuning:  DGCFAD

OK, here's the deal...this song truly requires 3 or 4 guitars, but I can narrow it down 
2 for yall.
This is the best "Scared" tab yet!!!!!!  Even more credit to "Hal and Leonard" 
 Please rate!!

Guitar 1 - Barry Stock
Guitar 2 - Adam Gontier

INTRO - Distortion    3X
Guitar 1
|5--5---5--5--5--4------5--5---5--5--5s7---4-----|
|x--x---x--x--x--x------x--x---x--x--xxx---x-----|
|5--5---5--5--5--4------5--5---5--5--5s7---4-----|
|------------------------------------------------|
|------------------------------------------------|
|------------------------------------------------|

Guitar 2 - Distortion  2X
Comes in after Guitar 1 plays INTRO riff once!
|------------------------------------------------|
|------------------------------------------------|
|------------------------------------------------|
|2--2---2--2--2--2------2--2---2--2--2-----2-----|
|0--0---0--0--0--2------0--0---0--0--0-----2-----|
|----------------0-------------------------0-----|

VERSE 1 - 2X
Guitar 1 - Distortion
|-8------7-------8------7------8-----7----8-----8s10s7--------|
|-x------x-------x------x------x-----x----x-----x--x-x--------|
|-5------4-------5------4------5-----4----5-----5s-7s4--------|
|-------------------------------------------------------------|
|-------------------------------------------------------------|
|-------------------------------------------------------------|

Guitar 2 - Clean w/ tremolo -- Just listen for it! Its there!
|-------------------------------------------------------------|
|-------------------------------------------------------------|
|-------------------------------------------------------------|
|-------------------------------------------------------------|
|-0~~~~----------0~~~~---------0~~~~------0~~~~---------------|
|-------------------------------------------------------------|

PRE-CHORUS - Part 1
Guitar 1 - Dist.
......So real these  voi-ces in my..
|----------------------------------------------|
|----------------------------------------------|
|--5---5---5---5-----5---5---5---5-------------|
|--3---3---3---3-----5---5---5---5-------------|
|----------------------------------------------|
|----------------------------------------------|

Guitar 2 - Dist.
|----------------------------------------------|
|----------------------------------------------|
|----------------------------------------------|
|--------------------5---5---5---5-------------|
|--3---3---3---3-----3---3---3---3-------------|
|--1---1---1---1-------------------------------|

PRE-CHORUS - Part 2
Guitars 1 and 2 play their intro riffs once!

Then,
Both Guitars play PRE-CHORUS Part 1 one time.

CHORUS - Part 1   **all notes lined up according to timing with each guitar.
Guitar 1 - Dist.
..scared...........you won't be......scared...won't be.....you won't be
|--------------------------------------------------------------------------|
|--------------------------------------------------------------------------|
|-5----4-----5------------7--7----4--5--------4--------5-----------7--7---4|
|-7----5-----3------------7--7----5--7--------5--------3-----------7--7---5|
|--------------------------------------------------------------------------|
|--------------------------------------------------------------------------|

Guitar 2 - Dist.
|--------------------------------------------------------------------------|
|--------------------------------------------------------------------------|
|--------------------------------------------------------------------------|
|-2-----------------------7--7-------2-----------------------------7--7----|
|-0----2-----3------------5--5----5--0--------2--------3-----------5--5---5|
|------0-----1--------------------3-----------0--------1------------------3|
[ Tab from: http://www.guitartabs.cc/tabs/t/three_days_grace/scared_tab_ver_5.html ]
CHORUS - Part 2
Guitar 1 - Dist.
..scared...........you won't be......scared...won't be.......LONELY!
|--------------------------------------------------------------7-----------|
|---------------------------------------------------------------6-5--------|
|-5----4-----5------------7--7----4--5--------4--------5-----------7-5-7---|
|-7----5-----3------------7--7----5--7--------5--------3-------------------|
|--------------------------------------------------------------------------|
|--------------------------------------------------------------------------|
Guitar 2 - Dist.
|--------------------------------------------------------------------------|
|--------------------------------------------------------------------------|
|------------------------------------------------------------------------4-|
|-2-----------------------7--7-------2-----------------------------------5-|
|-0----2-----3------------5--5----5--0--------2--------3-------------------|
|------0-----1--------------------3-----------0--------1-------------------|

Then, play INTRO twice with full distortion.

VERSE                 4X
PRE-CHORUS - Part 1   1X
PRE-CHORUS - Part 2   1X
PRE-CHORUS - Part 1   1X
CHORUS - Part 1       1X
CHORUS - Part 2       1X

INTERLUDE
Play INTRO             -  2X w/ Full Dist.
Play PRE-Chorus Part 1 -  1X

BRIDGE
Guitar 1 - OK, just play this note over and over with whammy bar diving down and up at 
depth you think sounds right!
|----------------------------------------------|
|----------------------------------------------|
|--14------------------------------------------|
|----------------------------------------------|
|----------------------------------------------|
|----------------------------------------------|

Guitar 2 - w/ Chorus and Envelope Filter Effects.
Just keep down-strummming over and over throughout the BRIDGE
|-5--------------------------------------------|
|-x--------------------------------------------|
|-2--------------------------------------------|
|----------------------------------------------|
|----------------------------------------------|
|----------------------------------------------|

At about 2:26 into the song..
Guitar 1 (Guitar 2 could also play along if desired)
PM.........................
|---------------------------------------------|
|---------------------------------------------|
|---------------------------------------------|
|---------------------5-------5--5------------|
|-3--8X---------------3--6X---3--3------------|
|-1-------------------------------------------|


CHORUS - Part 1   **all notes lined up according to timing with each guitar.
Guitar 1 - Dist.
..scared...........you won't be......scared...won't be.....you won't be
|--------------------------------------------------------------------------|
|--------------------------------------------------------------------------|
|-5----4-----5------------7--7----4--5--------4--------5-----------7--7---4|
|-7----5-----3------------7--7----5--7--------5--------3-----------7--7---5|
|--------------------------------------------------------------------------|
|--------------------------------------------------------------------------|

Guitar 2 - Dist.
|--------------------------------------------------------------------------|
|--------------------------------------------------------------------------|
|--------------------------------------------------------------------------|
|-2-----------------------7--7-------2-----------------------------7--7----|
|-0----2-----3------------5--5----5--0--------2--------3-----------5--5---5|
|------0-----1--------------------3-----------0--------1------------------3|

Chorus - Part 2
Guitar 1 - Dist.
NOTE: Be careful, last 2 chords are different from previous CHORUSES!!
..scared...........you won't be......scared...won't be.......LONELY!
|--------------------------------------------------------------------------|
|--------------------------------------------------------------------------|
|-5----4-----5------------7--7----4--5--------4--------5-------------------|
|-7----5-----3------------7--7----5--7--------5--------3-----7-------------|
|------------------------------------------------------------5---3---------|
|----------------------------------------------------------------1---------|
Guitar 2 - Dist.
|--------------------------------------------------------------------------|
|--------------------------------------------------------------------------|
|--------------------------------------------------------------------------|
|-2-----------------------7--7-------2-----------------------7-------------|
|-0----2-----3------------5--5----5--0--------2--------3-----5---3---------|
|------0-----1--------------------3-----------0--------1---------1---------|

CHORUS - Part 1 and 2    1X
INTRO riff               2X
Comments