Three Days Grace - Scared Chords & Tabs

 

Scared Chords & Tabs

Three Days Grace Chords & Tabs

Version: 4 Type: Tab 0 ratings
1 star 2 stars 3 stars 4 stars 5 stars
comments

Scared Tab

Scared - Three Days Grace
Drop D Tuning
Tabbed By yoyojoe
Intro
(Guitar 1, Distorted)
|---------------------------------------------------|
|---------------------------------------------------|
|-15-15--15-15--15-15-14--15-15--15-15--15-15/16-14-|
|-x--x---x--x---x--x--x---x--x---x--x---x--x-----x--|
|-13-13--13-13--13-13-12--13-13--13-15--13-13/14-12-|
|---------------------------------------------------|

Main Riff
(Guitar 1, Distorted)
|---------------------------------------------------|
|---------------------------------------------------|
|-15-15--15-15--15-15-14--15-15--15-15--15-15/16-14-|
|-x--x---x--x---x--x--x---x--x---x--x---x--x-----x--|
|-13-13--13-13--13-13-12--13-13--13-15--13-13/14-12-|
|---------------------------------------------------|
(Guitar 2, Distorted)
|------------------------------------|
|------------------------------------|
|------------------------------------|
|-5-5--5-5--5-5-3--5-5--5-5--5-5h6-3-|
|-5-5--5-5--5-5-3--5-5--5-5--5-5h6-3-|
|-5-5--5-5--5-5-3--5-5--5-5--5-5h6-3-|

Verse
(Guitar 1, Clean)
|-----------------------------|
|-----------------------------|
|-----------------------------| X2
|-5---p0-5---p0-5---p0-5---p0-|
|-5---p0-5---p0-5---p0-5---p0-|
|-----------------------------|
(Guitar 2, Distorted) This involves no picking
|----------------------------------|
|----------------------------------|
|-h15--p12h15--p12h15--p12h15--p12-| X2
|----------------------------------|
|----------------------------------|
|----------------------------------|
(Both Guitars, Distorted)
|-----------------|
|-----------------|
|-----------------|
|-5-5-5-5-8-8-8-8-|
|-5-5-5-5-8-8-8-8-|
|-5-5-5-5-8-8-8-8-|

(Main Riff X1)
[ Tab from: http://www.guitartabs.cc/tabs/t/three_days_grace/scared_tab_ver_4.html ]
(Both Guitars, Distorted)
|-----------------|
|-----------------|
|-----------------|
|-5-5-5-5-8-8-8-8-|
|-5-5-5-5-8-8-8-8-|
|-5-5-5-5-8-8-8-8-|

Chorus
(Both Guitars, Distorted)
|---------------------------------|
|---------------------------------|
|---------------------------------| X3
|-5--0-2-2-2--3-3-3--8-8-8-8--8-7-|
|-5--0-2-2-2--3-3-3--8-8-8-8--8-7-|
|-5--0-2-2-2--3-3-3--8-8-8-8--8-7-|

On The fourth time:

(Guitar 1, Distorted)
|-----------------------------------|
|-------------------5p3-------------|
|-----------------------5p4-2p0-----|
|-5--0-2-2-2--3-3-3-------------5p4-|
|-5--0-2-2-2--3-3-3-----------------|
|-5--0-2-2-2--3-3-3-----------------|

(Guitar 2, Distorted)
|---------------------------|
|---------------------------|
|---------------------------|
|-5--0-2-2--3-3--8-8-8--8-7-|
|-5--0-2-2--3-3--8-8-8--8-7-|
|-5--0-2-2--3-3--8-8-8--8-7-|

Third Verse:
(Guitar 1, W/Chorus Effect) this involves no picking
This is actually a bass riff and it involves no playing at all but if u want you can play this:
|---------------------------|
|---------------------------|
|---------------------------|
|-/7--\4/7--\4/7--\4/7--\4/7|
|---------------------------|
|---------------------------|
(Guitar 2, Clean)
|-------------5-5-5---------|
|---------------------------|
|---------------------------|
|---------------------------|
|---------------------------|
|---------------------------|
(Guitar 1, Distorted)
|---------------------------------|
|---------------------------------|
|---------------------------------|
|-3-3-3-3-3-3-3-3-4-4-4-4-4-4-----|
|-3-3-3-3-3-3-3-3-4-4-4-4-4-4-----|
|-3-3-3-3-3-3-3-3-4-4-4-4-4-4-----|
PM____________________
                   *
              Slowly lift PM here
Comments