Three Days Grace - Now Or Never Chords & Tabs

 

Now Or Never Chords & Tabs

Three Days Grace Chords & Tabs

Version: 4 Type: Tab 0 ratings
1 star 2 stars 3 stars 4 stars 5 stars
comments

Now Or Never Tab

Now or Never - Three Days Grace
Tuning:  Drop D     DADGBE

Here is another 3DG tab, with more props to "Hal and Leonard."  The verse would have 
tough to figure out with the help of the tab book!!  This is it, strum for strum as usual! 
rate!!  This one is dead on!!

Guitar 1 - Barry Stock
Guitar 2 - Adam Gontier

INTRO
Guitar 1 - Clean
Last chord strummed very softly.
Let each ring out.

Guitar 1
e|---------------------------------|
B|---------------------------------|
G|-6----6--------------------------|
D|-4----4----4----7----------------|
A|-2----0----2----5----------------|
E|------0----2----5----------------|

INTRO CONTINUED   3X

Both Guitars - Dist.
e|------------------------------|
B|------3-----------------------|
G|-4-4--2-----4-4----7----------|
D|-4-4--0---0-2-2--0-5----------|
A|-2-2--0---0-2-2--0-5----------|
E|------0---0-2-2--0-5----------|

INTRO Continued    1X
Both Guitars - Dist.
e|-----------0--------------------|
B|-----------0--------------------|
G|--6--6--6--2--------------------|
D|--4--4--4--2--------------------|
A|--4--4--4--0--------------------|
E|--4--4--4-----------------------|

VERSE
Guitar 1 - Dist. (both guitars could play the same thing here)
e|-------------------------------------------|
B|----------------0---------3---------0------|
G|-7----2----4----2----7----2----4----2------|
D|-7----0----4----2----7----0----4----2------|
A|-5----0----2----0----5----0----2----0------|
E|-5----0----2---------5----0----2-----------|

CHORUS
Part 1  3X
Both Guitars - Dist.
e|------------------------------|
B|------3-----------------------|
G|-4-4--2-----4-4----7----------|
D|-4-4--0---0-2-2--0-5----------|
A|-2-2--0---0-2-2--0-5----------|
E|------0---0-2-2--0-5----------|

CHORUS
Part 2   1X
Both Guitars - Dist
e|-------------------------------------|
B|-------------------------------------|
G|-6---6--6--6--9--9----9----9----9----|
D|-4---4--4--4--7--7----7----7----7----|
A|-4---4--4--4--7--7----7----7----7----|
E|-4---4--4--4--7--7----7----7----7----|

CHORUS
Part 1    3X
Both Guitars - Dist.
e|------------------------------|
B|------3-----------------------|
G|-4-4--2-----4-4----7----------|
D|-4-4--0---0-2-2--0-5----------|
A|-2-2--0---0-2-2--0-5----------|
E|------0---0-2-2--0-5----------|

Chorus
Part 2  1X
Both Guitars - Dist.  1X
e|------------0-------------------|
B|------------0-------------------|
G|-6-6--6--6--2-------------------|
D|-4-4--4--4--2-------------------|
A|-4-4--4--4--0-------------------|
E|-4-4--4--4----------------------|
[ Tab from: http://www.guitartabs.cc/tabs/t/three_days_grace/now_or_never_tab_ver_4.html ]
VERSE
Guitar 1
e|-------------------------------------------|
B|----------------0---------3---------0------|
G|-7----2----4----2----7----2----4----2------|
D|-7----0----4----2----7----0----4----2------|
A|-5----0----2----0----5----0----2----0------|
E|-5----0----2---------5----0----2-----------|

CHORUS
Part 1  3X
Both Guitars - Dist.
e|------------------------------|
B|------3-----------------------|
G|-4-4--2-----4-4----7----------|
D|-4-4--0---0-2-2--0-5----------|
A|-2-2--0---0-2-2--0-5----------|
E|------0---0-2-2--0-5----------|

CHORUS
Part 2   1X
Both Guitars - Dist.
e|-------------------------------------|
B|-------------------------------------|
G|-6---6--6--6--9--9----9----9----9----|
D|-4---4--4--4--7--7----7----7----7----|
A|-4---4--4--4--7--7----7----7----7----|
E|-4---4--4--4--7--7----7----7----7----|

CHORUS   3X
Part 1
Both Guitars - Dist.
e|------------------------------|
B|------3-----------------------|
G|-4-4--2-----4-4----7----------|
D|-4-4--0---0-2-2--0-5----------|
A|-2-2--0---0-2-2--0-5----------|
E|------0---0-2-2--0-5----------|

Both Guitars - Dist.   1X
NOTE:  On last chord, gradually dive down with whammy bar and  eventually dive back up!!!!
e|----------------------|
B|------------0---------|
G|------------2---------|
D|-4-4--4--4--2---------|
A|-4-4--4--4--0---------|
E|-4-4--4--4------------|

INTRO  1X
Guitar 1 - Clean

CHORUS
Part 1 - 3X
Both Guitars - Dist.
e|------------------------------|
B|------3-----------------------|
G|-4-4--2-----4-4----7----------|
D|-4-4--0---0-2-2--0-5----------|
A|-2-2--0---0-2-2--0-5----------|
E|------0---0-2-2--0-5----------|

CHORUS
Part 2   1X
Both Guitars - Dist.
e|-------------------------------------|
B|-------------------------------------|
G|-6---6--6--6--9--9----9----9----9----|
D|-4---4--4--4--7--7----7----7----7----|
A|-4---4--4--4--7--7----7----7----7----|
E|-4---4--4--4--7--7----7----7----7----|

Chorus  3X
Both Guitars - Dist.
e|------------------------------|
B|------3-----------------------|
G|-4-4--2-----4-4----7----------|
D|-4-4--0---0-2-2--0-5----------|
A|-2-2--0---0-2-2--0-5----------|
E|------0---0-2-2--0-5----------|

CHORUS
Part 2   1X
Both Guitars - Dist.
e|-------------------------------------|
B|-------------------------------------|
G|-6---6--6--6--9--9----9----9----9----|
D|-4---4--4--4--7--7----7----7----7----|
A|-4---4--4--4--7--7----7----7----7----|
E|-4---4--4--4--7--7----7----7----7----|

CHORUS / OUTRO 3X
Both Guitars - Dist.
e|------------------------------|
B|------3-----------------------|
G|-4-4--2-----4-4----7----------|
D|-4-4--0---0-2-2--0-5----------|
A|-2-2--0---0-2-2--0-5----------|
E|------0---0-2-2--0-5----------|

CHORUS / OUTRO
Part 2   1X
Both Guitars - Dist.         v--slide down
e|-------------------------------------|
B|-------------------------------------|
G|-6---6--6--6--9--9----9----9<--------|
D|-4---4--4--4--7--7----7----7<--------|
A|-4---4--4--4--7--7----7----7<--------|
E|-4---4--4--4--7--7----7----7<--------|
Comments