Three Days Grace - Now Or Never Chords & Tabs

 

Now Or Never Chords & Tabs

Three Days Grace Chords & Tabs

Version: 3 Type: Tab 0 ratings
1 star 2 stars 3 stars 4 stars 5 stars
comments

Now Or Never Tab

Dropped D tuning (bottom string)
Tabbed by E-mix
/-slide down
~-let it ring

Intro
(Clean)
|---------------|
|---------------|
|---------------|
|-9---7---2---5-|
|-9---7---2---5-|
|-9---7---2---5-|

(Distorted)
|------------------|    |----------------|
|------------------|    |----------------|
|------------------| X3 |----------------|
|-9-9-0--0-2-2-0-5-|    |-4-4-4-4-9~-----|
|-9-9-0--0-2-2-0-5-|    |-4-4-4-4-7~-----|
|-9-9-0--0-2-2-0-5-|    |-4-4-4-4-7~-----|

Verse
(Distorted)
|------------------|
|------------------|
|------------------|
|-5~--0~--2~--7~---|  X2
|-5~--0~--2~--7~---|
|-5~--0~--2~--7~---|

Chorus
(Distorted)
|------------------|    |------------------|
|------------------|    |------------------|
|------------------| X3 |------------------|
|-9-9-0--0-2-2-0-5-|    |-4-4-4-4-77-7-7---|
|-9-9-0--0-2-2-0-5-|    |-4-4-4-4-77-7-7---|
|-9-9-0--0-2-2-0-5-|    |-4-4-4-4-77-7-7---|

|------------------|    |----------------|
|------------------|    |----------------|
|------------------| X3 |----------------|
|-9-9-0--0-2-2-0-5-|    |-4-4-4-4-9~-----|
|-9-9-0--0-2-2-0-5-|    |-4-4-4-4-7~-----|
|-9-9-0--0-2-2-0-5-|    |-4-4-4-4-7~-----|

Verse
(Distorted)
|------------------|
|------------------|
|------------------|
|-5~--0~--2~--7~---|  X2
|-5~--0~--2~--7~---|
|-5~--0~--2~--7~---|
[ Tab from: http://www.guitartabs.cc/tabs/t/three_days_grace/now_or_never_tab_ver_3.html ]
Chorus
(Distorted)
|------------------|    |------------------|
|------------------|    |------------------|
|------------------| X3 |------------------|
|-9-9-0--0-2-2-0-5-|    |-4-4-4-4-77-7-7---|
|-9-9-0--0-2-2-0-5-|    |-4-4-4-4-77-7-7---|
|-9-9-0--0-2-2-0-5-|    |-4-4-4-4-77-7-7---|

|------------------|    |----------------|
|------------------|    |----------------|
|------------------| X3 |----------------|
|-9-9-0--0-2-2-0-5-|    |-4-4-4-4-9/-----|
|-9-9-0--0-2-2-0-5-|    |-4-4-4-4-9/-----|
|-9-9-0--0-2-2-0-5-|    |-4-4-4-4-9/-----|

Bridge
(Clean)
|---------------|
|---------------|
|---------------|
|-9---7---2---5-|
|-9---7---2---5-|
|-9---7---2---5-|

Chorus
(Distorted)
|------------------|    |------------------|
|------------------|    |------------------|
|------------------| X3 |------------------|
|-9-9-0--0-2-2-0-5-|    |-4-4-4-4-77-7-7---|
|-9-9-0--0-2-2-0-5-|    |-4-4-4-4-77-7-7---|
|-9-9-0--0-2-2-0-5-|    |-4-4-4-4-77-7-7---|

|------------------|    |------------------|
|------------------|    |------------------|
|------------------| X3 |------------------|
|-9-9-0--0-2-2-0-5-|    |-4-4-4-4-77-7-7---|
|-9-9-0--0-2-2-0-5-|    |-4-4-4-4-77-7-7---|
|-9-9-0--0-2-2-0-5-|    |-4-4-4-4-77-7-7---|

|------------------|    |-------------------|
|------------------|    |-------------------|
|------------------| X3 |-------------------|
|-9-9-0--0-2-2-0-5-|    |-4-4-4-4-77-7-7/---|
|-9-9-0--0-2-2-0-5-|    |-4-4-4-4-77-7-7/---|
|-9-9-0--0-2-2-0-5-|    |-4-4-4-4-77-7-7/---|
Comments