Three Days Grace - Just Like You Chords & Tabs

 

Just Like You Chords & Tabs

Three Days Grace Chords & Tabs

Version: 9 Type: Tab 0 ratings
1 star 2 stars 3 stars 4 stars 5 stars
comments

Just Like You Tab

Drop D:(low to high)DADGBe

Chorus 1 4X
e|---------------|----|-------------|
B|---------------|----|-------------|
G|---------------|----|-------------|
D|---4-2-----4-4-|-4X-|------2---2--|
A|---2-0-4-0-2-2-|----|--5-xx0-xx0--|
D|-------4-0-----|----|--5----------|

Verse 1
e|-------|-------|-------|-----------|
B|-------|-------|-------|-----------|
G|--6----|--7----|--6----|-----------|
D|--x----|--x----|--x----|----2---2--|
A|--4----|--5----|--4----|--xx0-xx0--|
D|-------|-------|-------|-----------|

Chorus 2 2X
e|--------|--------|--------|--------------|
B|--------|--------|--------|--------------|
G|--------|--------|--------|--------------|
D|--4-----|--2--5--|--4-----|-------2---2--|
A|--2--0--|--0--3--|--2--0--|--5--xx0-xx0--|
D|-----0--|--------|-----0--|--5-----------|

Chorus 1 2X
e|---------------|----|-------------|
B|---------------|----|-------------|
G|---------------|----|-------------|
D|---4-2-----4-4-|-4X-|------2---2--|
A|---2-0-4-0-2-2-|----|--5-xx0-xx0--|
D|-------4-0-----|----|--5----------|

Verse 2
e|-------|-------|-------|-----------|
B|-------|-------|-------|-----------|
G|--6----|--7----|--6----|-----------|
D|--x----|--x----|--x----|----2---2--|
A|--4----|--5----|--4----|--xx0-xx0--|
D|-------|-------|-------|-----------|
[ Tab from: http://www.guitartabs.cc/tabs/t/three_days_grace/just_like_you_tab_ver_9.html ]
Chorus 2
e|--------|--------|--------|--------------|
B|--------|--------|--------|--------------|
G|--------|--------|--------|--------------|
D|--4-----|--2--5--|--4-----|-------2---2--|
A|--2--0--|--0--3--|--2--0--|--5--xx0-xx0--|
D|-----0--|--------|-----0--|--5-----------|

Verse 3
e|-------------|-------------|-------------|----------------|----|
B|-------------|-------------|-------------|----------------|----|
D|-------------|----4-2------|-------------|-------4-2------|-2X-|
A|--5-5-5-7-0--|----2-0-4-0--|--2-2-2-5-7--|---7-7-2-0-4-0--|----|
D|--5-5-5-7-0--|--------4-0--|--2-2-2-5-7--|---7-7-----4-0--|----|

e|-------|-------|-------|-------------------|
B|-------|-------|-------|-------------------|
G|--6----|--7----|--6----|-------------------|
D|--4----|--5----|--4----|------------2---2--|
A|--4----|--5----|--4----|--5-5-5-5-xx0-xx0--|
D|--4----|--5----|--4----|--5-5-5-5----------|

Chorus 2 2X
e|--------|--------|--------|--------------|
B|--------|--------|--------|--------------|
G|--------|--------|--------|--------------|
D|--4-----|--2--5--|--4-----|-------2---2--|
A|--2--0--|--0--3--|--2--0--|--5--xx0-xx0--|
D|-----0--|--------|-----0--|--5-----------|

Chorus 1
e|---------------|----|-------------|
B|---------------|----|-------------|
G|---------------|----|-------------|
D|---4-2-----4-4-|-4X-|------2---2--|
A|---2-0-4-0-2-2-|----|--5-xx0-xx0--|
D|-------4-0-----|----|--5----------|

ok guyz my second tab yes again i know its correct i have it written out on
paper until i heard of this site if u have ne problems email me at
bohunky_chicky@hotmail.com
Comments