Three Days Grace - Just Like You Chords & Tabs

 

Just Like You Chords & Tabs

Three Days Grace Chords & Tabs

Version: 7 Type: Tab 0 ratings
1 star 2 stars 3 stars 4 stars 5 stars
comments

Just Like You Tab

   
Song: Just Like You
Artist: Three Days Grace
Album: Three Days Grace
Tabber: ~Bushore~             Email: bushymaster_87@hotmail.com

Tuning: Dropped D Tuning
D A D G B e

Intro:

e-----------------------------------------------------------------|
B-----------------------------------------------------------------|
G-----------------------------------------------------------------|
D-9-7-4-0-9-9----9-7-4-0-9-9----9-7-4-0-9-9----7-----x-x-9--x-x-9-|
A-9-7-4-0-9-9----9-7-4-0-9-9----9-7-4-0-9-9----5-----x-x-7--x-x-7-|
D-9-7-4-0-9-9----9-7-4-0-9-9----9-7-4-0-9-9----5-----x-x-7--x-x-7-|

Verse:                                                            x2
-----------------------------------------------------------------|
-----------------------------------------------------------------|
-----------------------------------------------------------------|
-9-7-4-0-9-9----9-7-4-0-9-9----9-7-4-0-9-9----7-----x-x-9--x-x-9-|
-9-7-4-0-9-9----9-7-4-0-9-9----9-7-4-0-9-9----5-----x-x-7--x-x-7-|
-9-7-4-0-9-9----9-7-4-0-9-9----9-7-4-0-9-9----5-----x-x-7--x-x-7-|

Pre Chorus:
-----------------------------------------------------------------|
-----------------------------------------------------------------|
-6~~~~~~~~~~~~7~~~~~~~~~~~~6~~~~~~~~~~~--------------------------|
-4------------5------------4-----------7--7--7--7---x-x-9--x-x-9-|
-4------------5------------4-----------5--5--5--5---x-x-7--x-x-7-|
-4------------5------------4-----------5--5--5--5---x-x-7--x-x-7-|
                                      Pm*  *  *  *
Chorus:                                              x2
----------------------------------------------------|
----------------------------------------------------|
----------------------------------------------------|
-9-----9--9--0-----0--0--7-----7--7--10------10--10-|
-9-----9--9--0-----0--0--7-----7--7--10------10--10-|
-9-----9--9--0-----0--0--7-----7--7--10------10--10-|

----------------------------------------------------|
----------------------------------------------------|
----------------------------------------------------|
-9-----9--9--0-----0--0--7--7--7--7---x-x-9--x-x-9--|
-9-----9--9--0-----0--0--5--5--5--5---x-x-7--x-x-7--|
-9-----9--9--0-----0--0--5--5--5--5---x-x-7--x-x-7--|

Verse:                                                            x2
-----------------------------------------------------------------|
-----------------------------------------------------------------|
-----------------------------------------------------------------|
-9-7-4-0-9-9----9-7-4-0-9-9----9-7-4-0-9-9----7-----x-x-9--x-x-9-|
-9-7-4-0-9-9----9-7-4-0-9-9----9-7-4-0-9-9----5-----x-x-7--x-x-7-|
-9-7-4-0-9-9----9-7-4-0-9-9----9-7-4-0-9-9----5-----x-x-7--x-x-7-|
[ Tab from: http://www.guitartabs.cc/tabs/t/three_days_grace/just_like_you_tab_ver_7.html ]
Pre Chorus:
-----------------------------------------------------------------|
-----------------------------------------------------------------|
-6~~~~~~~~~~~-7~~~~~~~~~~~-6~~~~~~~~~----------------------------|
-4------------5------------4-----------7--7--7--7---x-x-9--x-x-9-|
-4------------5------------4-----------5--5--5--5---x-x-7--x-x-7-|
-4------------5------------4-----------5--5--5--5---x-x-7--x-x-7-|
                                      Pm*  *  *  *
Chorus:                                            x2
------------------------------------------------------|
------------------------------------------------------|
------------------------------------------------------|
-9-----9--9--0-----0--0--7-----7--7--10------10--10---|
-9-----9--9--0-----0--0--7-----7--7--10------10--10---|
-9-----9--9--0-----0--0--7-----7--7--10------10--10---|

----------------------------------------------------|
----------------------------------------------------|
----------------------------------------------------|
-9-----9--9--0-----0--0--7--7--7--7---x-x-9--x-x-9--|
-9-----9--9--0-----0--0--5--5--5--5---x-x-7--x-x-7--|
-9-----9--9--0-----0--0--5--5--5--5---x-x-7--x-x-7--|

Bridge:                                                      x2
------------------------------------------------------------|
------------------------------------------------------------|
------------------------------------------------------------|
-7--7--7--7--7--7--7--0---0--0--0--0--0--0--0---9--7--4--0--|
-5--5--5--5--5--5--5--0---0--0--0--0--0--0--0---9--7--4--0--|
-5--5--5--5--5--5--5--0---0--0--0--0--0--0--0---9--7--4--0--|

------------------------------------------------------------|
------------------------------------------------------------|
------------------------------------------------------------|
-2--2--2--2--2--2--2--7---7--7--7--7--7--7--7---9--7--4--0--|
-2--2--2--2--2--2--2--7---7--7--7--7--7--7--7---9--7--4--0--|
-2--2--2--2--2--2--2--7---7--7--7--7--7--7--7---9--7--4--0--|

Pre Chorus:
-----------------------------------------------------------------|
-----------------------------------------------------------------|
-6~~~~~~~~~~~~7~~~~~~~~~~~~6~~~~~~~~~~~--------------------------|
-4------------5------------4-----------7--7--7--7---x-x-9--x-x-9-|
-4------------5------------4-----------5--5--5--5---x-x-7--x-x-7-|
-4------------5------------4-----------5--5--5--5---x-x-7--x-x-7-|
                                      Pm*  *  *  *
Chorus:                                              x2
----------------------------------------------------|
----------------------------------------------------|
----------------------------------------------------|
-9-----9--9--0-----0--0--7-----7--7--10------10--10-|
-9-----9--9--0-----0--0--7-----7--7--10------10--10-|
-9-----9--9--0-----0--0--7-----7--7--10------10--10-|

e----------------------------------------------------|
b----------------------------------------------------|
g----------------------------------------------------|
d-9-----9--9--0-----0--0--7--7--7--7---x-x-9--x-x-9--|
a-9-----9--9--0-----0--0--5--5--5--5---x-x-7--x-x-7--|
d-9-----9--9--0-----0--0--5--5--5--5---x-x-7--x-x-7--|

Outro:
e-----------------------------------------------------------------|
b-----------------------------------------------------------------|
g-----------------------------------------------------------------|
d-9-7-4-0-9-9----9-7-4-0-9-9----9-7-4-0-9-9----7-----x-x-9--x-x-9-|
a-9-7-4-0-9-9----9-7-4-0-9-9----9-7-4-0-9-9----5-----x-x-7--x-x-7-|
d-9-7-4-0-9-9----9-7-4-0-9-9----9-7-4-0-9-9----5-----x-x-7--x-x-7-|

Got any suggestions or want to show me a song you're working on my emails at the top.
Comments