Three Days Grace - Just Like You Chords & Tabs

 

Just Like You Chords & Tabs

Three Days Grace Chords & Tabs

Version: 10 Type: Tab 0 ratings
1 star 2 stars 3 stars 4 stars 5 stars
comments

Just Like You Tab

This is an awesome song, but all the other tabs I found weren't that great, so I
decided to make my own. Well, I'm pretty sure it's about 100% correct. Enjoy!

Three Days Grace: Just Like You

Played in Drop-D (DADGBE)

Legend:
.=Palm Mute
/=Slide
X=Chuck/Rake (left hand mute)
h=hammer-on (slurr)
p=pull off (slurr)

Main Riff/Verse (Repeat this throughout verse)

E|------------------------------------------------------|
B|------------------------------------------------------|
G|------------------------------------------------------|
D|-8-6-3-0-8-8--8-6-3-0-8-8--8-6-3-0-8-8--4-X-X-6-X-X-6-|
A|-8-6-3-0-8-8--8-6-3-0-8-8--8-6-3-0-8-8--4-X-X-6-X-X-6-|
D|-8-6-3-0-8-8--8-6-3-0-8-8--8-6-3-0-8-8--4-X-X-6-X-X-6-|
                                            . .   . .

Pre-Chorus (first bar has a slight echo)

E|--------|---------------------------------------------|
B|--------|---------------------------------------------|
G|--5-6-5-|---------------------------------------------|
D|--X-X-X-|-4-4-4-4--X-X-6--X-X-6-----------------------|
A|--3-4-3-|-4-4-4-4--X-X-6--X-X-6-----------------------|
D|--------|-4-4-4-4--X-X-6--X-X-6-----------------------|
            . . . .  . .    . .

Chorus (Repeat)
      
E|------------------------------------------------------|
B|------------------------------------------------------|
G|------------------------------------------------------|
D|-8-4-6-8-9--8-4-6--X-X-6--X-X-6-----------------------|
A|-8-4-6-8-9--8-4-6--X-X-6--X-X-6-----------------------|
D|-8-4-6-8-9--8-4-6--X-X-6--X-X-6-----------------------|
                     . .    . .

Main Riff/Verse (Repeat this throughout verse)

E|------------------------------------------------------|
B|------------------------------------------------------|
G|------------------------------------------------------|
D|-8-6-3-0-8-8--8-6-3-0-8-8--8-6-3-0-8-8--4-X-X-6-X-X-6-|
A|-8-6-3-0-8-8--8-6-3-0-8-8--8-6-3-0-8-8--4-X-X-6-X-X-6-|
D|-8-6-3-0-8-8--8-6-3-0-8-8--8-6-3-0-8-8--4-X-X-6-X-X-6-|
                                            . .   . .
[ Tab from: http://www.guitartabs.cc/tabs/t/three_days_grace/just_like_you_tab_ver_10.html ]
Chorus (Repeat)
      
E|------------------------------------------------------|
B|------------------------------------------------------|
G|------------------------------------------------------|
D|-8-4-6-8-9--8-4-6--X-X-6--X-X-6-----------------------|
A|-8-4-6-8-9--8-4-6--X-X-6--X-X-6-----------------------|
D|-8-4-6-8-9--8-4-6--X-X-6--X-X-6-----------------------|
                     . .    . .

Pre-Chorus (bar one has a slight echo)

E|--------|---------------------------------------------|
B|--------|---------------------------------------------|
G|--5-6-5-|---------------------------------------------|
D|--X-X-X-|-4-4-4-4--X-X-6--X-X-6-----------------------|
A|--3-4-3-|-4-4-4-4--X-X-6--X-X-6-----------------------|
D|--------|-4-4-4-4--X-X-6--X-X-6-----------------------|
            . . . .  . .    . .

Interlude (Repeat)

E|------------------------------|----------------------------|
B|------------------------------|----------------------------|
G|------------------------------|----------------------------|
D|-4--4-4--8-8--6--6-6--8-6-3-0-|-4--4-4-4-4--6--6-6--8-6-3-0|
A|-4--4-4--8-8--6--6-6--8-6-3-0-|-4--4-4-4-4--6--6-6--8-6-3-0|
D|-4--4-4--8-8--6--6-6--8-6-3-0-|-4--4-4-4-4--6--6-6--8-6-3-0|


Pre-Chorus (first bar has a slight echo)

E|--------|---------------------------------------------|
B|--------|---------------------------------------------|
G|--5-6-5-|---------------------------------------------|
D|--X-X-X-|-4-4-4-4--X-X-6--X-X-6-----------------------|
A|--3-4-3-|-4-4-4-4--X-X-6--X-X-6-----------------------|
D|--------|-4-4-4-4--X-X-6--X-X-6-----------------------|
            . . . .  . .    . .


Chorus (Repeat)
      
E|------------------------------------------------------|
B|------------------------------------------------------|
G|------------------------------------------------------|
D|-8-4-6-8-9--8-4-6--X-X-6--X-X-6-----------------------|
A|-8-4-6-8-9--8-4-6--X-X-6--X-X-6-----------------------|
D|-8-4-6-8-9--8-4-6--X-X-6--X-X-6-----------------------|
                     . .    . .


Main Riff/Verse (Play Once)

E|------------------------------------------------------|
B|------------------------------------------------------|
G|------------------------------------------------------|
D|-8-6-3-0-8-8--8-6-3-0-8-8--8-6-3-0-8-8--4-X-X-6-X-X-6-|
A|-8-6-3-0-8-8--8-6-3-0-8-8--8-6-3-0-8-8--4-X-X-6-X-X-6-|
D|-8-6-3-0-8-8--8-6-3-0-8-8--8-6-3-0-8-8--4-X-X-6-X-X-6-|
                                            . .   . .
Comments