Three Days Grace - Just Like You Chords & Tabs

 

Just Like You Chords & Tabs

Three Days Grace Chords & Tabs

Version: 3 Type: Bass Tab 0 ratings
1 star 2 stars 3 stars 4 stars 5 stars
comments

Just Like You Bass Tab

   
ok guys this is my 1st time 2 EVER tab so it might be hard 2 read
this is just like you by three days grace on a 4 string
                   tabbed by JoRDan use drop d tuning
                          intro/verses
g--------------------------------------------------------|                     
d--------------------------------------------------------|
a--------------------------------------------------------|
d9-7-4-0-99----9-7-4-0-99---9-7-4-0-99----5~~5-5-7-5-5-7-|
                 pre-chorus

g------------------------------------|
d------------------------------------|
a------------------------------------|
d---4~~5~~4~~---5-5-5-5--5-5-7-5-5-7-|
                    chorus
[ Tab from: http://www.guitartabs.cc/tabs/t/three_days_grace/just_like_you_btab_ver_3.html ]
g----------------------------------------|
d----------------------------------------|
a----------------------------------------|
d9999-00000-7777-10101010-9999-0000-7777-|

verse

pre-chorus

chorus

brigde part 1 3x

g----------------------------------------|
d----------------------------------------|
a----------------------------------------|
d5-5-5-5-5-5-5-5-0-0-0-0-0-0-0-0-9-7-4-0-|

bridge part 2 1x
g----------------------------------------|
d----------------------------------------|
a----------------------------------------|
d2-2-2-2-2-2-2-2-7-7-7-7-7-7-7-7-9-7-4-0-|


ok there u go just like u on a four string this is a very easy son 2 play
have fun!
Comments