Three Days Grace - Just Like You Chords & Tabs

 

Just Like You Chords & Tabs

Three Days Grace Chords & Tabs

Version: 2 Type: Bass Tab 0 ratings
1 star 2 stars 3 stars 4 stars 5 stars
comments

Just Like You Bass Tab

Intro:
G------------------------------------------------------------|
D------------------------------------------------------------|
A-1-------1-1---1-------1-1---1-------1-1--------------------|
E---4-1-----------4-1-----------4-1---------2---2-2-4--2-2-4-|
B-------2-------------2-------------2------------------------|

Verse:
G------------------------------------------------------------|
D------------------------------------------------------------|
A-1-------1-1---1-------1-1---1-------1-1--------------------|
E---4-1-----------4-1-----------4-1---------2---2-2-4--2-2-4-|
B-------2-------------2-------------2------------------------|

G------------------------------------------------------------|
D------------------------------------------------------------|
A-1-------1-1---1-------1-1---1-------1-1--------------------|
E---4-1-----------4-1-----------4-1---------2---2-2-4--2-2-4-|
B-------2-------------2-------------2------------------------|

Pre-Chorus:
G--------------------------------------------------------------------|
D--------------------------------------------------------------------|
A--------------------------------------------------------------------|
E1-1-1-1-1-1-1-1-2-2-2-2-2-2-2-2-1-1-1-1-1-1-1-1-2-2-2-2-2-2-4-2-2-4-|
B--------------------------------------------------------------------|

Chorus:                                                         x2
G------------------------------------------------------------------------|
D------------------------------------------------------------------------|
A1-1-1-1------------------2-2-2-2-1-1-1-1--------------------------------|
E-----------------4-4-4-4----------------------------2-2-2-2-2-2-4-2-2-4-|
B---------2-2-2-2---------------------------2-2-2-2----------------------|

Verse:
G------------------------------------------------------------|
D------------------------------------------------------------|
A-1-------1-1---1-------1-1---1-------1-1--------------------|
E---4-1-----------4-1-----------4-1---------2---2-2-4--2-2-4-|
B-------2-------------2-------------2------------------------|

G------------------------------------------------------------|
D------------------------------------------------------------|
A-1-------1-1---1-------1-1---1-------1-1--------------------|
E---4-1-----------4-1-----------4-1---------2---2-2-4--2-2-4-|
B-------2-------------2-------------2------------------------|

Pre-Chorus:
G--------------------------------------------------------------------|
D--------------------------------------------------------------------|
A--------------------------------------------------------------------|
E1-1-1-1-1-1-1-1-2-2-2-2-2-2-2-2-1-1-1-1-1-1-1-1-2-2-2-2-2-2-4-2-2-4-|
B--------------------------------------------------------------------|

Chorus:
G------------------------------------------------------------------------|
D------------------------------------------------------------------------|
A1-1-1-1------------------2-2-2-2-1-1-1-1--------------------------------|
E-----------------4-4-4-4----------------------------2-2-2-2-2-2-4-2-2-4-|
B---------2-2-2-2---------------------------2-2-2-2----------------------|

Intro:

G------------------------------------------------------------|
D------------------------------------------------------------|
A-1-------1-1---1-------1-1---1-------1-1--------------------|
E---4-1-----------4-1-----------4-1---------2---2-2-4--2-2-4-|
B-------2-------------2-------------2------------------------|

Verse:

G------------------------------------------------------------|
D------------------------------------------------------------|
A-1-------1-1---1-------1-1---1-------1-1--------------------|
E---4-1-----------4-1-----------4-1---------2---2-2-4--2-2-4-|
B-------2-------------2-------------2------------------------|

G------------------------------------------------------------|
D------------------------------------------------------------|
A-1-------1-1---1-------1-1---1-------1-1--------------------|
E---4-1-----------4-1-----------4-1---------2---2-2-4--2-2-4-|
B-------2-------------2-------------2------------------------|

Pre-Chorus:
[ Tab from: http://www.guitartabs.cc/tabs/t/three_days_grace/just_like_you_btab_ver_2.html ]
G--------------------------------------------------------------------|
D--------------------------------------------------------------------|
A--------------------------------------------------------------------|
E1-1-1-1-1-1-1-1-2-2-2-2-2-2-2-2-1-1-1-1-1-1-1-1-2-2-2-2-2-2-4-2-2-4-|
B--------------------------------------------------------------------|
Chorus:                                                             x2
G------------------------------------------------------------------------|
D------------------------------------------------------------------------|
A1-1-1-1------------------2-2-2-2-1-1-1-1--------------------------------|
E-----------------4-4-4-4----------------------------2-2-2-2-2-2-4-2-2-4-|
B---------2-2-2-2---------------------------2-2-2-2----------------------|

Verse:

G------------------------------------------------------------|
D------------------------------------------------------------|
A-1-------1-1---1-------1-1---1-------1-1--------------------|
E---4-1-----------4-1-----------4-1---------2---2-2-4--2-2-4-|
B-------2-------------2-------------2------------------------|

G------------------------------------------------------------|
D------------------------------------------------------------|
A-1-------1-1---1-------1-1---1-------1-1--------------------|
E---4-1-----------4-1-----------4-1---------2---2-2-4--2-2-4-|
B-------2-------------2-------------2------------------------|

Pre-Chorus:
G--------------------------------------------------------------------|
D--------------------------------------------------------------------|
A--------------------------------------------------------------------|
E1-1-1-1-1-1-1-1-2-2-2-2-2-2-2-2-1-1-1-1-1-1-1-1-2-2-2-2-2-2-4-2-2-4-|
B--------------------------------------------------------------------|

Chorus:                                                             x2
G------------------------------------------------------------------------|
D------------------------------------------------------------------------|
A1-1-1-1------------------2-2-2-2-1-1-1-1--------------------------------|
E-----------------4-4-4-4----------------------------2-2-2-2-2-2-4-2-2-4-|
B---------2-2-2-2---------------------------2-2-2-2----------------------|

Bridge:

G--------------------------------------------|
D--------------------------------------------|
A----------------1-------------------1-------|
E-2---2------------4-1-----------4-----4-1---|
B---------2--2---------2-4---4-------------2-|

G--------------------------------------------|
D--------------------------------------------|
A----------------1-------------------1-------|
E-2---2------------4-1-----------4-----4-1---|
B---------2--2---------2-4---4-------------2-|

Pre-Chorus:

G---------------------------------------------------------------|
D---------------------------------------------------------------|
A---------------------------------------------------------------|
E1--------2--------1--------2-2-2-2---2-2-4---2-2-4-------------|
B---------------------------------------------------------------|

Chorus:                                                           x2
G------------------------------------------------------------------------|
D------------------------------------------------------------------------|
A1-1-1-1------------------2-2-2-2-1-1-1-1--------------------------------|
E-----------------4-4-4-4----------------------------2-2-2-2-2-2-4-2-2-4-|
B---------2-2-2-2---------------------------2-2-2-2----------------------|


Verse:

G------------------------------------------------------------|
D------------------------------------------------------------|
A-1-------1-1---1-------1-1---1-------1-1--------------------|
E---4-1-----------4-1-----------4-1---------2---2-2-4--2-2-4-|
B-------2-------------2-------------2------------------------|


Bridge:
G----------------------------------------------|
D----------------------------------------------|
A----------------1-------------------1---------|
E-2---2------------4-1-----------4-----4-1-----|
B---------2--2---------2-4---4-------------2---|

G--------------------------------------------|
D--------------------------------------------|
A----------------1-------------------1-------|
E-2---2------------4-1-----------4-----4-1---|
B---------2--2---------2-4---4-------------2-|

Pre-Chorus:
G----------------------------------------------------------|
D----------------------------------------------------------|
A----------------------------------------------------------|
E1--------2--------1--------2-2-2-2---2-2-4---2-2-4--------|
B----------------------------------------------------------|

Chorus:                                                             x2
G------------------------------------------------------------------------|
D------------------------------------------------------------------------|
A1-1-1-1------------------2-2-2-2-1-1-1-1--------------------------------|
E-----------------4-4-4-4----------------------------2-2-2-2-2-2-4-2-2-4-|
B---------2-2-2-2---------------------------2-2-2-2----------------------|


Verse:
G------------------------------------------------------------|
D------------------------------------------------------------|
A-1-------1-1---1-------1-1---1-------1-1--------------------|
E---4-1-----------4-1-----------4-1---------2---2-2-4--2-2-4-|
B-------2-------------2-------------2------------------------|
Comments