Three Days Grace - I Hate Everything About You Chords & Tabs

 

I Hate Everything About You Chords & Tabs

Three Days Grace Chords & Tabs

Version: 6 Type: Tab 0 ratings
1 star 2 stars 3 stars 4 stars 5 stars
comments

I Hate Everything About You Tab

THREE DAYS GRACE - I HATE EVERYTHING ABOUT YOU

                               Verse

|-------|-------|--------|--------|--------|
|-------|-------|--------|--------|--------|
|----6~-|-----6-|---4-6~-|-----6~-|---4-6~-|   (repeate the last 2 measures 
|----6~-|-----6-|---4-6~-|-----6~-|---4-6~-|    for the rest of the verses)
|-4-4---|----4--|--0-----|----4---|--0-----|
|-4-4---|-0h4---|-0------|-0h4----|-0------|
 (x1)     (x3)    (x4)      (x4)     (x4)



    Pre Chorus

|-----------------|
|-----------------|
|-----------------|
|-4~---0~---4~----|
|-2~---0~---4~----|
|------0~---4~----|


                           Chorus
[ Tab from: http://www.guitartabs.cc/tabs/t/three_days_grace/i_hate_everything_about_you_tab_ver_6.html ]
|---------------------------------------------------------|
|---------------------------------------------------------|
|---------------------------------------------------------|
|-4-4--0-0--2-2-2-0-0-0----4-4-4-4-x-0-0-0-0-x--2-2-2>7-6-|
|-4-4--0-0--2-2-2-0-0-0----4-4-4-4-x-0-0-0-0-x--2-2-2>7-6-|
|-4-4--0-0--2-2-2-0-0-0----4-4-4-4-x-0-0-0-0-x--2-2-2>7-6-|


                      Bridge

|----------------------------------------------------------------------------|
|----------------------------------------------------------------------------|
|----------------------------------------------------------------------------|
|----------------------------------------------------------------------------|
|--------------------------------------------------------------------------2~|
|-4--5--7--4--5--7--4--5--7--4--5p4-0--4--5--7--4--5--7--4--5--7--4--5p4-0-2~|


Im pretty sure this is right.
  Johny joe
Comments