Three Days Grace - I Hate Everything About You Chords & Tabs

 

I Hate Everything About You Chords & Tabs

Three Days Grace Chords & Tabs

Version: 3 Type: Tab 0 ratings
1 star 2 stars 3 stars 4 stars 5 stars
comments

I Hate Everything About You Tab

   
"I Hate Everything About You" by Three Days Grace
Tab by Taylor Haines (Rock_Rhythm)
Tuning = drop D (eBGDAD)
b = bend
/ = slide

Verse (clean or aucustic)

e-------------------------------------
B-------------------------------------
G-------------------------------------
D-------------------------------------
A--------4b-------4b-------4b-------4b
D--4-4-4----4-4-4----4-4-4----4-4-4---

e-------------------------------------
B-------------------------------------
G-------------------------------------
D-------------------------------------
A--------4b-------4b-------4b-------4b
D--0-0-0----0-0-0----0-0-0----0-0-0---

Pre-Chorus (delay)

e--0--------------0-------------------
B--0--------------0-------------------
G--2--------------4-----7-------------
D--2--------------4-----7-------------
A--0--------------2-----5-------------
D-------------------------------------

chorus
[ Tab from: http://www.guitartabs.cc/tabs/t/three_days_grace/i_hate_everything_about_you_tab_ver_3.html ]
e-------------------------------------
B-------------------------------------
G-------------------------------------
D--4-4---0-0---7-7---2-2--------------
A--4-4---0-0---7-7---2-2--------------
D--4-4---0-0---7-7---2-2--------------
                                         4x
e-------------------------------------
B-------------------------------------
G-------------------------------------
D--4-4---0-0---2-2---7-7--------------
A--4-4---0-0---2-2---7-7--------------
D--4-4---0-0---2-2---7-7--------------

Bridge

e-------------------------------------
B-------------------------------------
G--666-777-00--666-777-00--666-777-00-
D--666-777-99--666-777-99--666-777-99-
A--444-555-77--444-555-77--444-555-77-
D-------------------------------------
                                          2x
e-------------------------------------
B-------------------------------------
G--666/7/6/2--------------------------
D--666/7/6/2--------------------------
A--444/5/4/0--------------------------
D-------------------------------------


order = v-c-v-c-b-c-c
Comments