Three Days Grace - I Hate Everything About You Chords & Tabs

 

I Hate Everything About You Chords & Tabs

Three Days Grace Chords & Tabs

Version: 2 Type: Tab 9 ratings
1 star 2 stars 3 stars 4 stars 5 stars
comments

I Hate Everything About You Tab

Three Days Grace
“I Hate Every Thing About You”
Tuning: Drop d
Taber: Justin Scandone

Before you start playing you need to know one thing this is my first tab and I’m new. But I am 100% sure this is correct ok proceed.
  
h= hammer on.
p= pull off.
= slide.
x= lay your fingers across the strings and play them down, up, down. (Dead note)
(#)= let pervious note ring.
 X# = play that many times ex. (X3 = three times)

Intro

E-------------------------------------------------------------------|
B-------------------------------------------------------------------|
G------4-6-----4-6-----4-6-----4-6-----4-6-----4-6-----4-6-----4-6--|
D------4-6-----4-6-----4-6-----4-6-----4-6-----4-6-----4-6-----4-6--|
A-------------------------------------------------------------------|
D--0h4-----0h4-----0h4-----0h4-----0-0-----0-0-----0-0-----0-0------|

Play the intro 6 times


E----------------------------------------------|
B---------------------------------------6-(6)--|
G---------------------------------------6-(6)--|
D-2-(2)-------------0-(0)----------------------|
A-2-(2)-------------0-(0)----------------------|
D-2-(2)-------------0-(0)----------------------|
(Heavy Distortion) 


 
E---------------------------------------------------------|
B---------------------------------------------------------|
G---------------------------------------------------------|
D---------------------------------------------------------|
A-4-4--0-0--7-7-7-7--2-2-2-2-2--4-4--0-0--2-2-2-2-2-7-6--|
D-4-4--0-0--7-7-7-7--2-2-2-2-2--4-4--0-0--2-2-2-2-2-7-6--|





E-------------------------------------------------------------------|
B-------------------------------------------------------------------|
G------4-6-----4-6-----4-6-----4-6-----4-6-----4-6-----4-6-----4-6--|
D------4-6-----4-6-----4-6-----4-6-----4-6-----4-6-----4-6-----4-6--|
A-------------------------------------------------------------------|
D--0h4-----0h4-----0h4-----0h4-----0-0-----0-0-----0-0-----0-0------|

Play this 4 times

[ Tab from: http://www.guitartabs.cc/tabs/t/three_days_grace/i_hate_everything_about_you_tab_ver_2.html ]
E---------------------------------------------|
B---------------------------------------6-(6)-|
G---------------------------------------6-(6)-|
D-2-(2)-------------0-(0)---------------------|
A-2-(2)-------------0-(0)---------------------|
D-2-(2)-------------0-(0)---------------------|
(Heavy Distortion) 


E---------------------------------------------------------|
B---------------------------------------------------------|
G---------------------------------------------------------|
D---------------------------------------------------------|
A-4-4--0-0--7-7-7-7--2-2-2-2-2--4-4--0-0--2-2-2-2-2-7-6--|
D-4-4--0-0--7-7-7-7--2-2-2-2-2--4-4--0-0--2-2-2-2-2-7-6--|

E-------------------------------------------------------------|
B-------------------------------------------------------------|
G-------------------------------------------------------------|
D-------------------------------------------------------------|
A-4-4-x-0-0-x-7-7-7-7--2-2-2-2-2--4-4-x-0-0-x-2-2-2-2-2-7-6--|
D-4-4-x-0-0-x-7-7-7-7--2-2-2-2-2--4-4-x-0-0-x-2-2-2-2-2-7-6--|
        (Still Distorted)

Then the solo

E-------------------------------------------------------|
B-------------------------------------------------------|
G-------------------------------------------------------|
D-6---7---9--6---7---9--6---7---9--6---7p---------------| play twice
A-----------------------------------------------7-------|
D-------------------------------------------------------|





E----------------------------------|
B----------------------------------|
G-----4-6-----4-6-----4-6-----4-6--|
D-----4-6-----4-6-----4-6-----4-6--|
A----------------------------------|
D-0h4-----0h4-----0h4-----0h4------|
       (Distortion)

E---------------------------------------------------------|
B---------------------------------------------------------|
G---------------------------------------------------------|
D---------------------------------------------------------|
A-4-4--0-0--7-7-7-7--2-2-2-2-2--4-4--0-0--2-2-2-2-2-7-6--|
D-4-4--0-0--7-7-7-7--2-2-2-2-2--4-4--0-0--2-2-2-2-2-7-6--|


Play six times The last time you play it end the last note without distortion.


Comments