Three Days Grace - Home Chords & Tabs

 

Home Chords & Tabs

Three Days Grace Chords & Tabs

Version: 2 Type: Tab 0 ratings
1 star 2 stars 3 stars 4 stars 5 stars
comments

Home Tab

Band: Three Days Grace
Song: Home
CD: Three Days Grace
Tabbed by: Alex Zilliox (Rockstar911)

(Intro)
e--------------------------------
B--------------------------------
G--------------------------------
D-0-0-3-3--0-3-3--0-0-5-5--3-3-1
A-0-0-3-3--0-3-3--0-0-5-5--3-3-1
E-0-0-3-3--0-3-3--0-0-5-5--3-3-1
[ Tab from: http://www.guitartabs.cc/tabs/t/three_days_grace/home_tab_ver_2.html ]
(Verse)
e----------------------------
B----------------------------
G----------------------------
D-7-0-0-5-0-0-3-0-0-5-3-----
A-7-0-0-5-0-0-3-0-0-5-3-----
E-7-0-0-5-0-0-3-0-0-5-3-----

(Chorus)
e---------------------------
B---------------------------
G---------------------------
D-7--5--3--5--7--0-----------
A-7--5--3--5--7--0-----------
E-7--5--3--5--7--0-----------

Thats pretty much it, but you've got to keep 
in mind that this tab may not be 100% correct,
 if you have any questions or corrections please 
IM me @ Lif30nSt4nby182, or Email me at Kleptompg13@gmail.com
Comments