Three Days Grace - Home Chords & Tabs

 

Home Chords & Tabs

Three Days Grace Chords & Tabs

Version: 1 Type: Tab 2 ratings
1 star 2 stars 3 stars 4 stars 5 stars
comments

Home Tab

Three Days Grace
"Home"
Three Days Grace

transcribed by: Jim Fabry
corrections:    e-mail me at prophecyguitarman@yahoo.com

tuning:  Drop C
strings: CGCFAE
time:    4/4

notes: "x" means a muted string
       there is a 2nd guitar part that does the notes on the 1st and 2nd
       strings for the intro, but i wrote them in anyway.

  intro:
E|-----------------------|------------------6--4--|-----------------------|
A|------10----------10---|------11----------------|------10----------10---|
F|9--9--------9--9-------|------------------------|9--9--------9--9-------|
C|0--0--------0--0-------|10-10-------5--5--------|0--0--------0--0-------|
G|0--0--------0--0-------|8--8--------5--5--------|0--0--------0--0-------|
C|0--0--------0--0-------|8--8--------5--5--------|0--0--------0--0-------|


|-------------------6--4--|--------------------|----------------6-4-|
|-------11----------------|------10--------10--|------11------------|
|-------------------------|9--9------9--9------|--------------------|
|13-13--------5--5--------|0--0--xx-x0--0--xx-x|10-10-xx-x5--5--xx-x|
|13-13--------5--5--------|0--0--xx-x0--0--xx-x|8--8--xx-x5--5--xx-x|
|13-13--------5--5--------|0--0--xx-x0--0--xx-x|8--8--xx-x5--5--xx-x|


|--------------------|----------------6-4-|
|------10--------10--|------11------------|
|9--9------9--9------|--------------------|
|0--0--xx-x0--0--xx-x|13-13-xx-x5--5--xx-x|
|0--0--xx-x0--0--xx-x|13-13-xx-x5--5--xx-x|
|0--0--xx-x0--0--xx-x|13-13-xx-x5--5--xx-x|

[ Tab from: http://www.guitartabs.cc/tabs/t/three_days_grace/home_tab.html ]
verse:
| --3---3---3---3|--4---4---4---4|------------------|------------------ |
|.3---3---3---3--|3---3---3---3--|------------------|------------------.|
| ---------------|---------------|------------------|------------------ |
|.---------------|---------------|------------------|------------------.|
| ---------------|---------------|------------------|------------------ |
| ---------------|---------------|0-3005007008-10-12|0-3005007008-10-12 |

                               2 times


|--3---3---3---3|--4---4---4---4|
|3---3---3---3--|3---3---3---3--|
|---------------|---------------|
|---------------|---------------|
|---------------|---------------|
|---------------|---------------|


chorus:
| ------------|------------|------------|------------ |
|.---10-------|13----8-----|---10-------|------------.|
| ---9--------|------------|---9--------|------------ |
|.0-----------|8-----5-----|0-----------|13----10----.|
| 0-----------|8-----5-----|0-----------|13----10---- |
| 0-----------|8-----5-----|0-----------|13----10---- |

                         2 times


first 4 measures of intro  /  | ------------------|------------------ |
                              |.------------------|------------------.|
                              | ------------------|------------------ |
                              |.------------------|------------------.|
                              | ------------------|------------------ |
                              | 0-3005007008-10-12|0-3005007008-10-12 |


verse (2x)  /  |--3---3---3---3|--4---4---4---4|
               |3---3---3---3--|3---3---3---3--|
               |---------------|---------------|
               |---------------|---------------|
               |---------------|---------------|
               |---------------|---------------|


chorus (2x)  /  intro  /  


bridge:
|---------|------|---------|------|---------|------|---------------|---------|
|---------|------|---------|------|---------|------|---------------|---------|
|---------|------|---------|------|---------|------|---------------|---------|
|0--------|------|0--------|------|0--------|------|0-0-0-0-0-0-0-0|1-1-1----|
|0--------|------|0--------|------|0--------|------|0-0-0-0-0-0-0-0|1-1-1----|
|0--------|------|0--------|------|0--------|------|0-0-0-0-0-0-0-0|1-1-1----|



chorus (2x)  /  intro (repeat as needed)  /
Comments