Three Days Grace - Everything About You Riff Chords & Tabs

 

Everything About You Riff Chords & Tabs

Three Days Grace Chords & Tabs

Version: 1 Type: Tab 0 ratings
1 star 2 stars 3 stars 4 stars 5 stars
comments

Everything About You Riff Tab

This song definately kicks ass, im not 100 percent if it is correct,
But it sounded good on my guitar. Maybe it will help you



Song: (i hate) everything about you
Band: three days grace



Tuning: Drop D


Intro/pre chorus


Softly
[ Tab from: http://www.guitartabs.cc/tabs/t/three_days_grace/everything_about_you_riff_tab.html ]
-----------------------------------------
-----------------------------------------
--------------------4---6~---------------  X 4
--------------------4---6~---------------
-----------------------------------------
-----0-----4-----------------------------



-----------------------------------------
-----------------------------------------
--------------------4---6~---------------  X 4
--------------------4---6~---------------
-----------------------------------------
----0---2--------------------------------
Comments