Three Days Grace - Drown Chords & Tabs

 

Drown Chords & Tabs

Three Days Grace Chords & Tabs

Version: 1 Type: Tab 1 rating
1 star 2 stars 3 stars 4 stars 5 stars
comments

Drown Tab

   
Three Days Grace
"Drown"
Three Days Grace

transcribed by: Jim Fabry
corrections:    e-mail me at prophecyguitarman@yahoo.com

tuning:  Drop B
strings: B,F#,B,E,G#,C#
time:    4/4

	intro:
C#|---------------|------------------|---------------|----------------|
G#|---------------|------------------|---------------|----------------|
E |---------------|------------------|---------------|----------------|
B |---------------|------------------|---------------|----------------|
F#|---------------|-----------7----78|---------------|----------------|
B |0-03-03-05-02-2|8---8--7-78----7--|0-03-03-05-02-2|8---8--7-7-788-8|

[ Tab from: http://www.guitartabs.cc/tabs/t/three_days_grace/drown_tab.html ]
	verse:
|-------|-------|-------|-------|-------|-------|-------|---------|
|-------|-------|-------|-------|-------|-------|-------|---------|
|-------|-------|-------|-------|-------|-------|-------|---------|
|0------|-------|-------|-------|0------|-------|-------|---10----|
|0------|-------|-------|-------|0------|-------|-------|---10----|
|0------|-------|-------|-------|0------|-------|-------|---10----|
							 (hold for
							  extra 2
							   beats)
	chorus:
|-------------|-----------------|-------------|-----------------|
|-------------|-----------------|-------------|-----------------|
|-------------|-----------------|-------------|-----------------|
|0------8-----|3------7---710-10|0------8-----|3------7---710-10|
|0------8-----|3------7---710-10|0------8-----|3------7---710-10|
|0------8-----|3------7---710-10|0------8-----|3------7---710-10|

|-------------|-----------------|-------------|---------------|
|-------------|-----------------|-------------|---------------|
|-------------|-----------------|-------------|---------------|
|0------8-----|3------7---710-10|0------8-----|3------7-------|
|0------8-----|3------7---710-10|0------8-----|3------7-------|
|0------8-----|3------7---710-10|0------8-----|3------7-------|


intro  /  verse  /  chorus  /  intro  /


|---------------|----------------|---------------------|
|---------------|----------------|---------------------|
|---------------|----------------|---------------------|
|---------------|----------------|---------------------|
|---------------|----------------|---------------------|
|0-03-03-05-02-2|8---8--7-7777777|10-101010101010101010|
				     (those are "10"s.)

1st 4 measures of chorus  /  chorus  /   |-----------------|----------|
					 |-----------------|----------|
		       this is the last	 |-----------------|----------|
		    measure in the chorus|3-----7----------|----------|
					 |3-----7---7----78|---7----78|
					 |3-----7-78----7--|-78----7--|
Comments