Three Days Grace - Drown Chords & Tabs

 

Drown Chords & Tabs

Three Days Grace Chords & Tabs

Version: 1 Type: Bass Tab 0 ratings
1 star 2 stars 3 stars 4 stars 5 stars
comments

Drown Bass Tab

   
Tuning-B,F#,B,E
Intro.
|-------------------------------------------------------------|
|-------------------------------------------------------------|
|-------------------------------------7----7h8----------------|
|--0--0h3-0h3-0h5-0h2-2--/8--8--7-7h8----7--------------------|

|-------------------------------------------------------------|
|-------------------------------------------------------------|
|-------------------------------------------------------------|
|--0--0h3-0h3-0h5-0h2-2--/8--8--7-7-7-8-8--8------------------|

Verse
|--------------------------------------------------|
|--------------------------------------------------|
|--------------------------------------------------|
|--0-------------------0-----------------10--------|
[ Tab from: http://www.guitartabs.cc/tabs/t/three_days_grace/drown_btab.html ]
Chorus (Gtr. 1)
|-------------------------------------------------|
|-------------------------------------------------|   x3
|-------------------------------------------------|
|--0-------8-------3-------7------10--10----------|

|-----------------------------------|
|-----------------------------------|
|-----------------------------------|
|--0-------8-------3-------7--------|

Intro

Verse

Chorus

Intro

|------------------------------------------------------------|
|------------------------------------------------------------|
|------------------------------------------------------------|
|--0--0h3-0h3-0h5-0h2-2--/8--8--7-7-7-7-7-7-7---10-x20-------|

Bridge(Chorus)

Chorus

Outro
|--------------------------------------------|
|--------------------------------------------|
|------7----7h8---------7----7h8-------------|
|--7h8----7---------7h8----7-----------------|
Comments