Three Days Grace - Burn Chords & Tabs

 

Burn Chords & Tabs

Three Days Grace Chords & Tabs

Version: 5 Type: Tab 0 ratings
1 star 2 stars 3 stars 4 stars 5 stars
comments

Burn Tab

   
Burn
Three Days Grace
Drop D

Intro
  #1                                  
E|--------------------------------------|   -------------------------|
B|--------------------------------------|   -------------------------|
G|--------------------------------------|   -------------------------|
D|--------------------------------------|x3 -------------------------|x1
A|--------------------------------------|    ------------------------|
D|--0-10-12-12-10--10-12-12-10-10-12-13-|    ----0-10-12-12-10-10-12~|
  #2   
E|--------------------------------------|
B|--------------------------------------|
G|--------------------------------------|   
D|--0-10-12-12-10--10-12-12-10-10-12-13-|x4 
A|--0-10-12-12-10--10-12-12-10-10-12-13-|   
D|--0-10-12-12-10--10-12-12-10-10-12-13-|   
[ Tab from: http://www.guitartabs.cc/tabs/t/three_days_grace/burn_tab_ver_5.html ]
  #3
E|---------------------------------|   -----------------|
B|---------------------------------|   -----------------|
G|---------------------------------|   -----------------|
D|--0-0-12-10-10-12-12-10-10-12-13-|x3 -0-0-12-10-10-12-|
A|--0-0-12-10-10-12-12-10-10-12-13-|   -0-0-12-10-10-12-|
D|--0-0-12-10-10-12-12-10-10-12-13-|   -0-0-12-10-10-12-|

Verse

E|----------------------------------|
B|----------------------------------|
G|--7-7-7-7-7-7-7-7-7-7-7-7-7-7-7-7-|
D|--6-6-6-6-6-6-6-6-6-6-6-6-6-6-6-7-|x4
A|----------------------------------|
D|----------------------------------|

Pre-Chorus

E|-------------------------|
B|-------------------------|
G|-5-----------------------|
D|-5------7-7-7-7-8-7-8-10-|
A|-3------7-7-7-7-8-7-8-10-|
D|-3------7-7-7-7-8-7-8-10-|

Chorus

E|-----------------------------------------------------------------------|
B|-----------------------------------------------------------------------|
G|-----------------10--10--10--10--10--10--------------------------------|
D|-0--12--7-7---8--10--10--10--10--10--10---3---3--1-1--7-7-7-7-8-7-8-10-|x2
A|-0--12--7-7---8---8---8---8---8---8---8---3---3--1-1--7-7-7-7-8-7-8-10-|
D|-0--12--7-7---8---8---8---8---8---8---8---3---3--1-1--7-7-7-7-8-7-8-10-|

verse
pre-chorus
chorus
Intro #2
verse x2
Pre Chorus
intro #2+#3
Comments