Three Days Grace - Burn Chords & Tabs

 

Burn Chords & Tabs

Three Days Grace Chords & Tabs

Version: 2 Type: Tab 1 rating
1 star 2 stars 3 stars 4 stars 5 stars
comments

Burn Tab

Three Days Grace
"Burn"
Three Days Grace

transcribed by: Jim Fabry
corrections:    e-mail me at prophecyguitarman@yahoo.com

tuning:  Drop D
strings: DADGBE
time:    4/4


  intro:
E| --------------------|--------------------- |--------------------|-------|
B|.--------------------|---------------------.|--------------------|-------|
G| --------------------|--------------------- |--------------------|-------|
D|.--------------------|---------------------.|--------------------|-(slide)
A| 0-10-12-0-12-10-0-10|12-0-12-10-0-10-12-13 |0-10-12-0-12-10-0-10|12----0|
D| 0-10-12-0-12-10-0-10|12-0-12-10-0-10-12-13 |0-10-12-0-12-10-0-10|12----0|

                    3 times


| --------------------|--------------------- |
|.--------------------|---------------------.|
| --------------------|--------------------- |
|.--------------------|---------------------.|
| 0-10-12---12-10-0-10|12---12-10---10-12-13 |
| 0-10-12---12-10-0-10|12---12-10---10-12-13 |
 
                    4 times


| -----------------|----------------- |-----------------|-----------|
|.-----------------|-----------------.|-----------------|-----------|
| -----------------|----------------- |-----------------|-----------|
|.-----------------|-----------------.|-----------------|---(slide)-|
| 0---0---12-10----|12----10----12-13 |0---0---12-10----|12--------0|
| 0---0---12-10----|12----10----12-13 |0---0---12-10----|12--------0|

                                              1             2
                                              ____________ _____________
verse:                                        |            |
| ---------------|----------------|-----------|----------- |----------0|
|.3---3---3---3-3|--3-3-3-3---3---|-----------|-----------.|-----------|
| 1---1---1---1-1|--1-1-1-1---2---|-----------|----------- |-----------|
|.---------------|----------------|-----------|-----------.|-----------|
| ---------------|----------------|-----------|----------- |-----------|
| ---------------|----------------|-----------|----------- |-----------|

                            4 times
[ Tab from: http://www.guitartabs.cc/tabs/t/three_days_grace/burn_tab_ver_2.html ]
pre:
|-----------|-----------|---------------|-------------|
|-----------|-----------|---------------|-------------|
|-----------|-----------|---------------|-------------|
|3----------|-----------|7---7---7---7--|8-7--8---10--|
|3----------|-----------|7---7---7---7--|8-7--8---10--|
|3----------|-----------|7---7---7---7--|8-7--8---10--|



chorus:
| ------------|------------|------------|---------------|--------------|
|.------------|------------|------------|---------------|--------------|
| ------------|------------|------------|---------------|--------------|
|.0-----0-----|7---7-----8-|------8----5|8-5---5---5---3|5-3-3---3----1|
| 0-----0-----|7---7-----8-|------8----5|8-5---5---5---3|5-3-3---3----1|
| 0-----0-----|7---7-----8-|------8----5|8-5---5---5---3|5-3-3---3----1|

                             2 times

       |-----------|---------------|------------- |
       |-----------|---------------|-------------.|
       |-----------|---------------|------------- |
       |3-1--------|7---7---7---7--|8-7--8---10--.|
       |3-1--------|7---7---7---7--|8-7--8---10-- |
       |3-1--------|7---7---7---7--|8-7--8---10-- |



verse (4x)  /  pre  /  chorus (2x)  /  intro: 1st stanza 2x, 2nd stanza 2x  /


bridge:
|---------------|---------------|0-0-0-0-0-0-0-1|1-1-1-1-1-1-1-0|
|----3---3---3--|3-3-3-3-3-3-3--|---------------|---------------|
|----1---1---1--|1-1-1-1-1-1-2--|---------------|---------------|
|---------------|---------------|---------------|---------------|
|---------------|---------------|---------------|---------------|
|---------------|---------------|---------------|---------------|


|---------------|---------------|0-0-0-0-0-0-0-1|1-1-1-1-1-1-0--|
|3---3---3---3--|3-3-3-3-3-3-3--|---------------|---------------|
|1---1---1---1--|1-1-1-1-1-1-2--|---------------|---------------|
|---------------|---------------|---------------|---------------|
|---------------|---------------|---------------|---------------|
|---------------|---------------|---------------|---------------|


|----------|----------|----------|----------|----------|----------|
|----------|----------|----------|----------|----------|----------|
|----------|----------|----------|----------|----------|----------|
|3---------|----------|5---------|----------|3---------|----------|
|3---------|----------|5---------|----------|3---------|----------|
|3---------|----------|5---------|----------|3---------|----------|

|---------------|----------|
|---------------|----------|
|---------------|----------|
|7---7---7---7--|7---------|
|7---7---7---7--|7---------|
|7---7---7---7--|7---------|


chorus (2x)  /  intro and variations  /
Comments