Three Days Grace - Born Like This Chords & Tabs

 

Born Like This Chords & Tabs

Three Days Grace Chords & Tabs

Version: 1 Type: Tab 2 ratings
1 star 2 stars 3 stars 4 stars 5 stars
comments

Born Like This Tab

Three Days Grace
"Born Like This"
Three Days Grace

transcribed by: Jim Fabry
corrections:    e-mail me at prophecyguitarman@yahoo.com

tuning:  Drop D
strings: DADGBE
time:    4/4

notes: "x" means a muted string
       "^^^" after a number means vibrato


  intro:
E| --------------|------------- |  | ------------|------------- |
B|.--------------|-------------.|  |.------------|-------------.|
G| --------------|------------- |  | ------4---5-|-8-8-8-8-7--- |
D|.--------------|-------------.|  |.0-----2---3-|-6-6-6-6-5---.|
A| --------------|------------- |  | 0-----2---3-|-6-6-6-6-5--- |
D| 0--0-0-2--2-3-|-6-6-6-6-5^^^ |  | 0-----2---3-|-6-6-6-6-5--- |

              4 times                         4 times

verse:  
|--------------|  | --------------|------------ |
|--8 measures--|  |.--------------|------------.|
|--------------|  | --------------|------------ |
|--------------|  |.x-x-x-x-------|------------.|
|--------------|  | x-x-x-x-------|------------ |
|--------------|  | x-x-x-x-------|------------ |

                               4 times
[ Tab from: http://www.guitartabs.cc/tabs/t/three_days_grace/born_like_this_tab.html ]
pre:
|----------|---------|----------|---------|----------|---------|
|12--------|---------|10--------|---------|12--------|---------|
|----------|---------|----------|---------|----------|---------|
|10--------|---------|7---------|---------|10--------|---------|
|10--------|---------|7---------|---------|10--------|---------|
|10--------|---------|7---------|---------|10--------|---------|

    |1--1--1--1-|1--1--1--1-|------------|--------------|
    |-----------|-----------|------------|--------------|
    |-----------|-----------|------------|--------------|
    |1--1--1--1-|1--1--1--1-|--10--10xx10|--10-xx--10---|
    |1--1--1--1-|1--1--1--1-|--8---8-xx8-|--8--xx--8----|
    |1--1--1--1-|1--1--1--1-|--8---8-xx8-|--8--xx--8----|


chorus:
| ------------|------------- |
|.------------|-------------.|
| ------4---5-|-8-8-8-8-7--- |
|.0-----2---3-|-6-6-6-6-5---.|
| 0-----2---3-|-6-6-6-6-5--- |
| 0-----2---3-|-6-6-6-6-5--- |

           8 times


verse  /  pre  /  chorus(8x)  /  1st 4 measures of pre (3x)  /

last 4 measures of pre /first 2 measures of intro(4x) /chorus(8x) /
Comments