Three Days Grace - Born Like This Chords & Tabs

 

Born Like This Chords & Tabs

Three Days Grace Chords & Tabs

Version: 1 Type: Bass Tab 0 ratings
1 star 2 stars 3 stars 4 stars 5 stars
comments

Born Like This Bass Tab

Band- Three Days Grace
Song- Born Like This
Tuning- Drop D

-------------------------------|
-------------------------------|  4X
-------------------------------|
-0--0-0-2-2-3-6-6-6-6-5^-------|


-------------------------------|
-------------------------------|  4X
-------------------------------|
-0-2-3-6-6-6-6-5-5-5-----------|
[ Tab from: http://www.guitartabs.cc/tabs/t/three_days_grace/born_like_this_btab.html ]
---------------------------------------------------------------| 3X
-0-0-0---------------------------------------------------------|
-------0--0-------------1-1--0-0-------1---0----------1-1----3-|
------------2-2-2-3--0-----------0-0-0-------3-3-3-5-----------|

-------------------------------|
-------------------------------|
-------------------------------|
-------------------------------|
-0-0-0-0------0-0-0-0----------|


-------------------------------|
-------------------------------|
-2-----0----2------------------|
-------------------------------|

--------------------------------------|
--------------------------------------|
--------------------------------------|
-88888888--8--X-3-3---X-X-3-3-3--X--1-|
Comments