Three 6 Mafia - Sippin On Syrup Chords & Tabs

 

Sippin On Syrup Chords & Tabs

Three 6 Mafia Chords & Tabs

Version: 1 Type: Tab 0 ratings
1 star 2 stars 3 stars 4 stars 5 stars
comments

Sippin On Syrup Tab

--9-11-----11-14-11-9------
---------------------------
---------------------------    3 X's
---------------------------
---------------------------
---------------------------


[ Tab from: http://www.guitartabs.cc/tabs/t/three_6_mafia/sippin_on_syrup_tab.html ]
--9-11--11--14-16-------------9---------
-------------------------11-----11-11-9-
----------------------------------------
----------------------------------------
----------------------------------------
----------------------------------------



--11----9-14-14-9------
-----------------------
-----------------------
-----------------------
-----------------------
-----------------------


Sounds perfect if you lightly 
palm mute it.   mute the string 
between notes to give it the beat.

feedback @

harrisonh@neo.tamu.edu
Comments