Three 6 Mafia - Babys Mama Chords & Tabs

 

Babys Mama Chords & Tabs

Three 6 Mafia Chords & Tabs

Version: 1 Type: Tab 0 ratings
1 star 2 stars 3 stars 4 stars 5 stars
comments

Babys Mama Tab

INTRO:

---------------------------------------
---------------------------------------
---------------------------------------
---------------------------------------
-6-5-6------2-1-2----------------------
----------------------4-3-4-----2-1-2--


PIANO Part:
[ Tab from: http://www.guitartabs.cc/tabs/t/three_6_mafia/babys_mama_tab.html ]
----------9--11-------9--11---
------11-----------11---------
--11------------11------------
------------------------------
------------------------------
------------------------------

Thats it througout the whole song.
Any requests....send to 
harrisonh@heo.tamu.edu

need redemption by 2Pac.
Comments