Thousand Foot Krutch - When In Doubt Chords & Tabs

 

When In Doubt Chords & Tabs

Thousand Foot Krutch Chords & Tabs

Version: 1 Type: Tab 0 ratings
1 star 2 stars 3 stars 4 stars 5 stars
comments

When In Doubt Tab

When in Doubt
Thousand Foot Krutch
Tabbed by: Blake W 

Intro/1st verse
 ----------------------------------------------------------------
 ----------------------------------------------------------------
 --------7-------------------------------------------------------
 ----7-----7-----------------7-----------9-----------------------
 5-5---5-----5-0-----7-----7---7-----9-----9---------5-----5-----
 ----------------5-5---5-5-------7-7---7-----7-3-3-3---3-3---3-\5

[ Tab from: http://www.guitartabs.cc/tabs/t/thousand_foot_krutch/when_in_doubt_tab.html ]
just after distorsion kicks in
 ----------------------------------------
 ----------------------------------------
 ----------------------------------------
 7-7-5-5-4-7-7-5-5-4-7-7-5-5-4-----4-4-5-
 ------------------------------5-5-------
 ----------------------------------------


Play for rest of the song until the riff below comes (different strumming patterns for
different parts of song)
 ----------------------
 ----------------------
 --7-7-7---------------
 --7-7-7-7-7-7-9-9-9-5-
 --5-5-5-7-7-7-9-9-9-5-
 --------5-5-5-7-7-7-3-

play after 1st chorus-2nd chorus
 ----------------------
 ----------------------
 ----------------------
 777777777/--5-5-5-4-5-
 ----------------------
 ----------------------



Comments