Thousand Foot Krutch - Up Comes Down Chords & Tabs

 

Up Comes Down Chords & Tabs

Thousand Foot Krutch Chords & Tabs

Version: 1 Type: Tab 0 ratings
1 star 2 stars 3 stars 4 stars 5 stars
comments

Up Comes Down Tab

Tabbed by:THE SANDMAN
Email:ryan5@iamwasted.com

Tuning:drop d


e|-10-----
b|-10-----
G|--------
D|--------
A|--------
D|--------


e|---------------------------------------| -----   
b|---------------------------------------|------
G|---------------------------------------|------
D|-0-2-0-3-0-2-0-3-0-2h3-0-2-0-3-0-2--6-6|--5-5-
A|-0-2-0-3-0-2-0-3-0-2h3-0-2-0-3-0-2--6-6|--5-5-
D|-0-2-0-3-0-2-0-3-0-2h3-0-2-0-3-0-2--6-6|--5-5-


e|-------------------------------
b|-------------------------------
G|-------------------------------
D|---7-------5-------2-------3---
A|-------------------------------
D|-------------------------------


e|---------------------------------------------|-----------------
b|---------------------------------------------|-----------------
G|---------------------------------------------|-----------------
D|-0-0--0-0-0-0--0-0-0-0--0-0-3-3-3-3-5-5-5-5--|-5-5-5-5-3-3-3-3-
A|-0-0--0-0-0-0--0-0-0-0--0-0-3-3-3-3-5-5-5-5--|-5-5-5-5-3-3-3-3-
D|-0-0--0-0-0-0--0-0-0-0--0-0-3-3-3-3-5-5-5-5--|-5-5-5-5-3-3-3-3-


e|--------------------
b|--------------------
G|---------------------
D|-0-0-0-0--0--0-0-0-0-
A|-0-0-0-0--0--0-0-0-0-
D|-0-0-0-0--0--0-0-0-0-

[ Tab from: http://www.guitartabs.cc/tabs/t/thousand_foot_krutch/up_comes_down_tab.html ]
e|---------------------------------------------
b|---------------------------------------------
G|----------------------------------------------
D|-0-0-0-0--0--0-0-0-0--0--0-0-0-0--0--0-0-3/10-
A|-0-0-0-0--0--0-0-0-0--0--0-0-0-0--0--0-0-3/10-
D|-0-0-0-0--0--0-0-0-0--0--0-0-0-0--0--0-0-3/10-


e|-----------------------------------------------|-----------------
b|-----------------------------------------------|-----------------
G|-----------------------------------------------|-----------------
D|-----------------------------------------------|-----------------
A|-----------------------------------------------|-----------------
D|-0-0--0--0-0-0--0--0-0-0--0--0-3-3-3-3-5-5-5-5-|-5-5-5-5-3-3-3-3-


e|---------------------------------------|-----------------
b|------3------3------3------------------|-----------------
G|------2------2------2------------------|-----------------
D|-0-0--0-0-0--0-0-0--0--3-3-3-3-5-5-5-5-|-5-5-5-5-3-3-3-3-
A|-0-0--0-0-0--0-0-0--0--3-3-3-3-5-5-5-5-|-5-5-5-5-3-3-3-3-
D|-0-0--0-0-0--0-0-0--0--3-3-3-3-5-5-5-5-|-5-5-5-5-3-3-3-3-


e|------------------------------------------
b|------------------------------------------
G|------------------------------------------
D|--------------------------------------5-5-
A|--------------------------------------5-5-
D|-0--2-0-3-0-2-0-3-0-2h3-0--2-0-3-0-2--5-5-
Comments