Thousand Foot Krutch - Unbelievable Chords & Tabs

 

Unbelievable Chords & Tabs

Thousand Foot Krutch Chords & Tabs

Version: 4 Type: Tab 0 ratings
1 star 2 stars 3 stars 4 stars 5 stars
comments

Unbelievable Tab

Unbelievable by thousand foot krutch
cd-Set it off
tabed by Chase Morris
                     Intro/Chorus
[ Tab from: http://www.guitartabs.cc/tabs/t/thousand_foot_krutch/unbelievable_tab_ver_4.html ]
E[-4-4-----------------4-4-----------------------]
A[-6-6-2-2-3-4-4-2-2-2-6-6-2-2-3-4---------------]
D[-6-6-4-4-5-6-6-4-4-0-6-6-4-4-5-6---------------]
G[-----4-4-5-6-6-4-4-------4-4-5-6---------------]
B[-----------------------------------------------]
E[-----------------------------------------------]        
                     Verse   
E[-4---------------------------------------------]
A[-6-4-4-6-6-------------------------------------]
D[-6-6-6-8-8-------Repeat------------------------]
G[---6-6-8-8-------------------------------------]
B[-----------------------------------------------]
E[-----------------------------------------------]
                       Bridge
E[-4-4-4-4---------------4-4-4-4-----------------]
A[-6-6-6-6-4-4-4-4-6-6-6-6-6-6-6-4---------------]
D[-6-6-6-6-6-6-6-6-8-8-8-6-6-6-6-6---------------]
G[---------6-6-6-6-8-8-8---------6---------------]
B[-----------------------------------------------]
E[-----------------------------------------------]
  
Comments