Thousand Foot Krutch - Unbelievable Chords & Tabs

 

Unbelievable Chords & Tabs

Thousand Foot Krutch Chords & Tabs

Version: 1 Type: Bass Tab 0 ratings
1 star 2 stars 3 stars 4 stars 5 stars
comments

Unbelievable Bass Tab

These tabs are 100% correct


h= hammer on 
/=slide


Intro
A-----------2-22-2-3/4-4--------2-22-2---------------  2-22-2-3-4 
E--4-4-2h4----------------4-2/4---------5-5/4-4---4-2/4----------  x2
[ Tab from: http://www.guitartabs.cc/tabs/t/thousand_foot_krutch/unbelievable_btab.html ]
Verse 
A-------------------4--4--6-6 
E--4--2-4--2-4--2------------   repeat 

Bridge 
A-------------4-4-4-4-6-6----------------4 
E--4-4----44-----------------4-4----4-4---  

Chorus
A-----------2-22-2-3/4-4--------2-22-2---------------  2-22-2-3-4 
E--4-4-2h4----------------4-2/4---------5-5/4-4---4-2/4----------  
Comments