Thousand Foot Krutch - Set It Off Chords & Tabs

 

Set It Off Chords & Tabs

Thousand Foot Krutch Chords & Tabs

Version: 1 Type: Tab 0 ratings
1 star 2 stars 3 stars 4 stars 5 stars
comments

Set It Off Tab

   
Song title: Set It Off
Artist: Thousand Foot Krutch
Album: That’s What People Do

Drop ‘D’ Tuning   (DADGBE)

(You never use the 3 light strings, GBE, but only the low stings, DAD)
 Intro
    D5 D5		      D5  D5                                                
D|--0--0-----------------5--3--0--0---------------------|
A|--0--0--------3--5--3--------0--0--------3--5--3--0---|
D|--0--0--3--5-----------------0--0--3--5--------------3|
      
    D5 D5	               D5 D5
D|--0--0-----------------5--3--0--0-------------------|
A|--0--0---------3--5--3-------0--0---------3—55330---|
D|--0--0--3--5-----------------0--0--3--5------------3|

  Verse (when he starts rapping)
   D5  D5		      D5  D5
D|--0--0-----------------5--3--0--0---------------------|
A|--0--0--------3--5--3--------0--0--------3--5--3--0---|
D|--0--0--3--5-----------------0--0--3--5--------------3|

    D5 D5		        D5  D5	            F5
D|--0--0------------------5--3--0--0-----------------3|
A|--0--0---------3--5--3--------0--0--------3--55330-3|
D|--0--0--3--5------------------0--0--3--5-----------3|
 Repeat the verse, and then repeat it two more times with distortion (make sure you palm-mute where appropriate).

Pre-chorus
   D5 D5 D5 F5 G5 D5 D5 Bb5 C5 D5 D5 A5 Ab5
    v  v  ^  v  h  v  ^  v  h   v  ^  v  v
D|--0--0--0--3--5--0--0--8--10--0--0--7--6|
A|--0--0--0--3--5--0--0--8--10--0--0--7--6|
D|--0--0--0--3--5--0--0--8--10--0--0--7--6|
  Repeat 2 more times then do:
[ Tab from: http://www.guitartabs.cc/tabs/t/thousand_foot_krutch/set_it_off_tab.html ]
   D5 D5 D5 F5 G5 D5 D5  C5 Bb5Ab5A5 A5
    v  v  ^  v  h  v  ^  v   v  v s  v
D|--0--0--0--3--5--0--0--10--8--6/7--7|
A|--0--0--0--3--5--0--0--10--8--6/7--7|
D|--0--0--0--3--5--0--0--10--8--6/7--7|
   Repeat the whole pre-chorus 2 more times

Chorus
   The chorus is the same as the pre-chorus, but heavily distorted.  Repeat a total of 3 times.  End on a D5.
Verse 2
  Repeat verse one.

Pre-chorus and Chorus
   Repeat the same ones as above.

Bridge
    E5 E5 E5 E5 F5 E5 E5 E5 E5 E5 F5 F5
    v  v  ^  v  h  ^  ^  v  ^  v  h  v
D|--2--x--x--2--3--2--x--x--x--2--3--3|
A|--2--x--x--2--3--2--x--x--x--2--3--3|
D|--2--x--x--2--3--2--x--x--x--2--3--3|

   E5 E5 E5 E5 F5 E5 D5 D5 D5 D5
    v  v  ^  v  h  ^  ^  v  v  v
D|--2--x--x--2--3--2--0--0--0--0|
A|--2--x--x--2--3--2--0--0--0--0|
D|--2--x--x--2--3--2--0--0--0--0|

Ending
    D5 D5		      D5  D5
D|--0--0-----------------5--3--0--0---------------------|
A|--0--0--------3--5--3--------0--0--------3--5--3--0---|
D|--0--0--3--5-----------------0--0--3--5--------------3|

   D5  D5                     D5  D5                    D5
D|--0--0-----------------5--3--0--0---------------------0|
A|--0--0--------3--5--3--------0--0--------3--55330-----0|
D|--0--0--3--5-----------------0--0--3--5------------3--0|
   Palm mute where appropriate.

E-mail me for questions and concerns:  andrewaukema@hotmail.com
p.s.  More TFK stuff to come....
Comments