Thousand Foot Krutch - Rawkfist Chords & Tabs

 

Rawkfist Chords & Tabs

Thousand Foot Krutch Chords & Tabs

Version: 1 Type: Bass Tab 0 ratings
1 star 2 stars 3 stars 4 stars 5 stars
comments

Rawkfist Bass Tab

   
Band: Thousand Foot Krutch
Song: Rawkfist
CD: Set It Off/Penomenon

Intro
G|-------|
D|-------|
A|-------|
E|-p0-p0-|

Verse
G|----------------------------------------|
D|----------------------------------------|
A|-6-7-----6-7-----6-7---------6-7----6-7-|
E|-----0-0-----0-0----0-0-0-0-0----0-0----|

G|-------|
D|-------|
A|-------|
E|-5-4-2-|

Chorus
G|-------------------------|
D|-------------------------|
A|-------------------3-3-3-|
E|-0-0-0-7-7-7-5-5-5-------|
[ Tab from: http://www.guitartabs.cc/tabs/t/thousand_foot_krutch/rawkfist_btab.html ]
G|-------------------------|
D|-------------------------|
A|------------------/7-7-7-|
E|-0-0-0-7-7-7-5-5-5-------|

Post-Chorus
G|---------------|
D|---------------|
A|-------------3-|
E|-7-6-4-X-7-6---|

Verse 2
G|---------------------------|
D|---------------------------|
A|-----5h6h7-5-------5h6h7-5-|
E|-0-0---------5-0-0---------|

G|---------------|
D|---------------|
A|---------------|
E|-X-00-55-00-33-|

Bridge
G|------------------------|
D|------------------------|
A|------------------------|
E|-p0p0--p0p0--p0p0--p0p0-|

G|---------------------|
D|---------------------|
A|-p7h5-p6h5-p7h5-p6h5-|
E|---------------------|

Tabbed by Jess (Aka norin)
Comments