Thousand Foot Krutch - Quicken Chords & Tabs

 

Quicken Chords & Tabs

Thousand Foot Krutch Chords & Tabs

Version: 1 Type: Tab 0 ratings
1 star 2 stars 3 stars 4 stars 5 stars
comments

Quicken Tab

   
Quicken
Thousand Foot Krutch
Copyright 2003 Tooth & Nail
Tabbed by: Sam Stranks - sam_stranks@hotmail.com


Order is:
Intro
Pre-chorus
Chorus
Pre-chorus
Chorus
Bridge x2
Chorus

Intro:
E------------------------------------------------------------------|
B------------------------------------------------------------------|
G-----------------------------------------------------------3-5-5--|
D-5---5---x-x---x-5-8-8---8-10-10---0---3---x-x---x-0---x-x-3-5-5--|
A-5---5---x-x---x-5-8-8---8-10-10---0---3---x-x---x-0---x-x-1-3-3--|
D-5---5---x-x---x-5-8-8---8-10-10---0---3---x-x---x-0---x-x--------|

E------------------------------------------------------------------|
B------------------------------------------------------------------|
G------------------------------------------------------------------|
D-5---5---5-5---5-5-8-8-8-8-10-10-10-10-0---3---3-3-3-0---1--1--1--|
A-5---5---5-5---5-5-8-8-8-8-10-10-10-10-0---3---3-3-3-0---1--1--1--|
D-5---5---5-5---5-5-8-8-8-8-10-10-10-10-0---3---3-3-3-0---1--1--1--|

Pre-chorus:
E--------------------|
B--------------------|
G--------------------|
D-8---7---5---7---8--|
A-8---7---5---7---8--|
D-8---7---5---7---8--|

Chorus:
E---------------------------------------------------------------------|
B---------------------------------------------------------------------|
G--------------------------------------------------------------3-5-5--|
D-5---5---5-5---5-5-8-8---8-10-10-10-0---3---3-3---3---0---0-0-3-5-5--|
A-5---5---5-5---5-5-8-8---8-10-10-10-0---3---3-3---3---0---0-0-1-3-3--|
D-5---5---5-5---5-5-8-8---8-10-10-10-0---3---3-3---3---0---0-0--------|
[ Tab from: http://www.guitartabs.cc/tabs/t/thousand_foot_krutch/quicken_tab.html ]
E---------------------------------------------------------------------|
B---------------------------------------------------------------------|
G--------------------------------------------------------------3-5-5--|
D-5---5---5-5---5-5-8-8---8-10-10-10-0---3---x-x---x---0---x-x-3-5-5--|
A-5---5---5-5---5-5-8-8---8-10-10-10-0---3---x-x---x---0---x-x-1-3-3--|
D-5---5---5-5---5-5-8-8---8-10-10-10-0---3---x-x---x---0---x-x--------|

E---------------------------------------------------------------------|
B---------------------------------------------------------------------|
G--------------------------------------------------------------3-5-5--|
D-5---5---5-5---5-5-8-8---8-10-10-10-0---3---3-3---3---0---0-0-3-5-5--|
A-5---5---5-5---5-5-8-8---8-10-10-10-0---3---3-3---3---0---0-0-1-3-3--|
D-5---5---5-5---5-5-8-8---8-10-10-10-0---3---3-3---3---0---0-0--------|

E-----------------------------------------------------------|
B-----------------------------------------------------------|
G-----------------------------------------------------------|
D-5---5---5-5---5-5-8-8---8-10-10-10-0---1---1---1---1---1--|
A-5---5---5-5---5-5-8-8---8-10-10-10-0---1---1---1---1---1--|
D-5---5---5-5---5-5-8-8---8-10-10-10-0---1---1---1---1---1--|


(I couldn't get the bridge rhythmn right but these are the chords, listen to the cd to 
out the correct rhythmn)
Bridge:
E-------------------------------------------------|
B-------------------------------------------------|
G-7-7-7-7-7-7-7-7-7-7-7-7-5-5-5-5-5-5-5-5-5-5-5-5-|
D-5-5-5-5-5-5-5-5-5-5-5-5-3-3-3-3-3-3-3-3-3-3-3-3-|
A-5-5-5-5-5-5-5-5-5-5-5-5-3-3-3-3-3-3-3-3-3-3-3-3-|
D-5-5-5-5-5-5-5-5-5-5-5-5-3-3-3-3-3-3-3-3-3-3-3-3-|

E-----------------------------------------------------|
B-----------------------------------------------------|
G-3---3---3---3-----------10-10-----------10-10---5---|
D-1---1---1---1----0-0----10-10----0-0----10-10---5---|
A-1---1---1---1----0-0----8--8-----0-0----8--8----3---|
D-1---1---1---1----0-0-------------0-0----------------|
Comments