Thousand Foot Krutch - Puppet Chords & Tabs

 

Puppet Chords & Tabs

Thousand Foot Krutch Chords & Tabs

Version: 1 Type: Bass Tab 0 ratings
1 star 2 stars 3 stars 4 stars 5 stars
comments

Puppet Bass Tab

Tune E string to B, and, A string to F#. only use those strings 

Intro/chorus 
F#---------------0000000-------------1111111--------------0000000 
B---300300300----------300300300----------300300300----------- 

F#----------------------------------- 
B---300300303-5-3-0-3--5                           (x2) 

Verse 1 & 2 
F#-------------0------------------------------1---5-------- 
B---2-2h3-2----2--------3—2-2h3-2-----1--3------5-3      (x2 pause x2) 
[ Tab from: http://www.guitartabs.cc/tabs/t/thousand_foot_krutch/puppet_btab.html ]
Bridge 
F#---------------------------------------------------------- 
B----2-2h3-3h2----2-2h3-3h0----2-2h3-3h2--------0r        (x2) 

R = let ring 

Chorus 

Verse 3 
F#-----0h1-0------1 
B--0-0-------0-0-0-      (x4) 

Solo part thing 
F#-------------------0 
B--33332-23-3332-       x3 

F#----------------- 
B--33332-2/5577      x1    (whole part x2) 

Verse 4 
F#--------------0 
B--33332-------         x3 

F#------------------ 
B--33332-2/5577      x1 (x2 for entire verse) 

Bridge 

Chorus. Last note slide down. 
Comments