Thousand Foot Krutch - Phenomenon Chords & Tabs

 

Phenomenon Chords & Tabs

Thousand Foot Krutch Chords & Tabs

Version: 2 Type: Bass Tab 0 ratings
1 star 2 stars 3 stars 4 stars 5 stars
comments

Phenomenon Bass Tab

   
pheonmenon tab by strider_hein

here is my version of phenomenon by tfk. i think its pretty close but there are
some sketchy areas. if you want to know the timing just listen to the song and
i bet u can figure it out. this is also my first tab

Bass comes in when Trevor begins to sing and keep playing until the chorus begins

g|-----------------------------------------|       
d|-----------------------------------------|
a|-----------------------------------------|
d|5555-5--5555-5--8888-8--3333-3-----------|


chorus part one play 3x
g|----------------------------------------|
d|----------------------------------------|
a|----------------------------------------|
d|1--111-0000-5-555/8/10-----------------|

chorus part two play 1x
g|-------------------------------------------------|
d|-------------------------------------------------|
a|-------------------------------------------------|
d|111111110000000-5-1-111-0------------------------|

verse two lighter part
g|-----------------------------------------|       
d|-----------------------------------------|
a|-----------------------------------------|
d|5555-5--5555-5--8888-8--3333-3-----------|

g|-----------------------------------------|       
d|-----------------------------------------|
a|-----------------------------------------|
d|5555-5--5555-5--8888-8--3333-3-----------|

g|-----------------------------------------|       
d|-----------------------------------------|
a|-----------------------------------------|
d|5555-5--5555-5--8888-8--3333-3-----------|

g|-----------------------------------------|       
d|-----------------------------------------|
a|-----------------------------------------|
d|5555-5--5555-5--8888-8--3333-3-----------|

verse two: heavy part
g|---------------------------------|
d|---------------------------------|
a|---------------------------------|
d|5555555-5555555-8888888-3333333--|

g|------------------------------|
d|------------------------------|
a|------------------------------|
d|5555555-5555555-8888888-3-3-3-|
[ Tab from: http://www.guitartabs.cc/tabs/t/thousand_foot_krutch/phenomenon_btab_ver_2.html ]
chorus part one play 3x
g|----------------------------------------|
d|----------------------------------------|
a|----------------------------------------|
d|1--111-0000-5-555/8/10-----------------|

chorus part two play 1x
g|-------------------------------------------------|
d|-------------------------------------------------|
a|-------------------------------------------------|
d|111111110000000-5-1-111-0------------------------|


bridge 
g|-----------------------------------|
d|-----------------------------------|
a|------------------11111111-33333333|
d|55555555-00000000------------------| 

g|-----------------------------------|
d|-----------------------------------|
a|------------------11111111-33333333|
d|55555555-00000000------------------|

g|-----------------------------------|
d|-----------------------------------|
a|------------------11111111-33333333|
d|55555555-00000000------------------|

g|-----------------------------------|
d|-----------------------------------|
a|------------------11111111-33333333|
d|55555555-00000000------------------|

chorus softer part
g|-----------------------------------------|       
d|-----------------------------------------|
a|-----------------------------------------|
d|-----------------------------------------|

chorus heavy part play 1x
g|----------------------------------------|
d|----------------------------------------|
a|----------------------------------------|
d|1--111-0000-5-555/8/10-----------------|

chorus part two play 1x
g|-------------------------------------------------|
d|-------------------------------------------------|
a|-------------------------------------------------|
d|111111110000000-5-1-111-0------------------------|

g|-----------------------------------|
d|-----------------------------------|
a|------------------11111111-33333333|
d|55555555-00000000------------------|

g|-----------------------------------|
d|-----------------------------------|
a|-----------------------------------|
d|55555555-00000000----1-111-0-------|


this is my tab. if you have any questions email me at fletcherpl@hotmail.com
Comments