Thousand Foot Krutch - Make Me A Believer Chords & Tabs

 

Make Me A Believer Chords & Tabs

Thousand Foot Krutch Chords & Tabs

Version: 1 Type: Bass Tab

Make Me A Believer Bass Tab

   
Band: Thousand Foot Krutch
Song: Make Me a Believer
CD: The Art of Breaking

Tuning: D-A-D-G

#1
G|----------------|--------------------|------------------|------------------|
D|----------------|--------------------|------------------|------------------|
A|----------------|--------------------|------------------|------------------|
D|-3-0-0--0-3h5-5-|-3-0-0--0-3h5-5h6p5-|-3-0-0--0-3-5-5h5-|-5-5-5--3-5h6p5-5-|

Repeat #1

#2
G|------------------|--------------------|------------------|------------------|
D|------------------|--------------------|------------------|------------------|
A|----1--1----------|-----------3-3-3----|----1--1----------|------------------|
D|0----------5--5---|-3-0-0---0----------|0----------5--5---|-3-0-0---0-5-5-6--|


#3
G|----------------------|------------------|
D|-------7--------10-10-|-------7----------|
A|----5--------8--------|----5---------6-3-|
D|-5--------8-----------|-5--------5-3-----|
[ Tab from: http://www.guitartabs.cc/tabs/t/thousand_foot_krutch/make_me_a_believer_btab.html ]
#4
G|----------------|----------------|----------------|-----------------------------|
D|----3-----------|----------------|----3-----------|-----------------------------|
A|--------1---3---|-----5---3---1--|--------1---3---|-5h3-3-3-3-3-3-0-0-0-1-1-1-1-|
D|0---------------|-0--------------|0---------------|-----------------------------|

Repeat #1

#5
G|------------|-----------------|-------------|-----------------|
D|------------|-----------------|-------------|-----------------|
A|----5-5-8-5-|-------8----8h10-|-------5-5---|-----------------|
D|-0----------|-8--8-----8------|-5--5------5-|-3-0-0---0-5-5-6-|

Repeat #3

Repeat #4

#6
G|-----------------|-----------------|--------------------------------|-----------------|
D|-----------------|-----------------|----3----------5--------5-------|-----------------|
A|-1---3-----------|-1---3-----------|-1----3-5-3--5---5----5---------|-----------------|
D|---------5---3---|---------5---3---|-------------------5------5-3---|-2-2-2-2-2-2-2-2-|

Repeat #4

Repeat #4

Repeat #1

Tabbed by Bryan Wright