Thousand Foot Krutch - Lift It Chords & Tabs

 

Lift It Chords & Tabs

Thousand Foot Krutch Chords & Tabs

Version: 5 Type: Tab 0 ratings
1 star 2 stars 3 stars 4 stars 5 stars
comments

Lift It Tab

   
Song: lift it
By: thousand foot krutch

This is the first tab I ever wrote but I know exactly how to play 
this song. I only have the tabs, no lyrics but if you listen to the 
song you should figure it out. If you have questions or suggestions, 
e-mail me at sharp_shooter54321@hotmail.com. 

Intro/verse 1

E--------------3--------------3---------------3-------3 --------3-----
B----------------3--------------3---------------3--------3--------3---
G------------------0---------------0---------------0--------0--------0
D-----------------------------------------------------------------------
A-0-2-3—3-----------------------------------------------------------
E----------------------2---2----------0---0---------------------------
[ Tab from: http://www.guitartabs.cc/tabs/t/thousand_foot_krutch/lift_it_tab_ver_5.html ]
E--------------3-------3---3--3-3-3-x----3-------3 --------3-----
B----------------3-----3---3--3-3-3-x------3--------3--------3---
G------------------0---1---1--1-1-1-x---------0--------0--------0
D-----------------------0---0--0-0-0-x-----------------------------
A-0-2-3—3-----------x---x--x-x-x-1-----------------------------
E-----------------------x---x--x--x-x-0----------------------------        
                    repeat until chorus


Chorus: I only have the chords here but they’re in order and you 
change every 4 beats or so. Once you have it down you can vary it a 
little. 

     C            D             G           Em
E—3--------3-----------3----------3
B—3--------3-----------3----------3
G—0--------1-----------0----------0
D—0--------0-----------0----------0
A—3--------x-----------0----------1
E—x--------x------------3---------0

Solo

E------------------------------------------------------------
B------------------------------------------------------------
G-4-4/5--5-5/7-7--5-5--5-5\4-4/5--5-5/7-7—7875-4
D------------------------------------------------------------
A------------------------------------------------------------
E------------------------------------------------------------repeat 4x 

E---------------------------------
B--------------------------------
G-4--4-4/5-5--7--5--------
D----------------------------
A----------------------------
E----------------------------

Remember, this song can be varied! I just have the basics here so 
learn them, then play it how you want to! Enjoy!
Comments