Thousand Foot Krutch - Lift It Chords & Tabs

 

Lift It Chords & Tabs

Thousand Foot Krutch Chords & Tabs

Version: 4 Type: Tab 0 ratings
1 star 2 stars 3 stars 4 stars 5 stars
comments

Lift It Tab

Submitted By: Marty Oblak
Song: Lift it
Artist: Thousand Foot Krutch
**********************************************************************
Intro:
--------------3----------------------------- 3-------------------------------3--3--3------
-----------------3-----------------3------------3---------------------------3--3--3------
---------------------0---------2-------2-----------2-----------------------0--0--0-------
------------------------0--0---------------------------0----------2------------------------
--0---2--3----------------------------------------------------2------2--------------------
------------------------------------------------------------0-------------------------------

Chorus: here's the chords ...you can figure it out
---3---------3---------3-----------3-------------------------------------------------------
---3---------3---------3-----------3-------------------------------------------------------
---0---------2---------0-----------0-------------------------------------------------------
---2---------0---------0-----------2-------------------------------------------------------
---3-------------------2-----------2--------------------------------------------------------
------------------------3---------- 0--------------------------------------------------------




[ Tab from: http://www.guitartabs.cc/tabs/t/thousand_foot_krutch/lift_it_tab_ver_4.html ]
Comments