Thousand Foot Krutch - I Climb Chords & Tabs

 

I Climb Chords & Tabs

Thousand Foot Krutch Chords & Tabs

Version: 1 Type: Tab 0 ratings
1 star 2 stars 3 stars 4 stars 5 stars
comments

I Climb Tab

   
Song: I Climb
Artist: Thousand Foot Krutch
Tabbed By: SSj & Vincent508

!! Drop D !!

()= Optional
*= mute strings

Intro/Verse
E------------------------------------------------|
B------------------------------------------------|
G--(12)----------15-14-15-12-10-12-8-7/8\7-------|
D------------------------------------------------|
A------------------------------------------------|
D------------------------------------------------|

Pre-Chorus
E----------------------------------------------------|
B----------------------------------------------------|
G----------------------------------------------------|
D--1-1-*-1-1-*-1-1-*-1-1-8p7--5-5-*-5-5-*-5-5-*-5\3--|
A--1-1-*-1-1-*-1-1-*-1-1-8p7--5-5-*-5-5-*-5-5-*-5\3--|
D--1-1-*-1-1-*-1-1-*-1-1-8p7--5-5-*-5-5-*-5-5-*-5\3--|

E--------------------------------------------------------|
B--------------------------------------------------------|
G--------------------------------------------------------|
D--1-1-*-1-1-*-1-1-*-1-1-8p7--3-3-*-3-3-*-3-3-*-3-3XXXX--|
A--1-1-*-1-1-*-1-1-*-1-1-8p7--3-3-*-3-3-*-3-3-*-3-3XXXX--|
D--1-1-*-1-1-*-1-1-*-1-1-8p7--3-3-*-3-3-*-3-3-*-3-3XXXX--|

Pre-Chorus_2
E----------------------------------------------------|
B----------------------------------------------------|
G----------------------------------------------------|
D--1-1-*-1-1-*-1-1-*-1-1-8-7-9--3---5-5-*-5-5-*-5\3--|
A--1-1-*-1-1-*-1-1-*-1-1-8-7-9--3---5-5-*-5-5-*-5\3--|
D--1-1-*-1-1-*-1-1-*-1-1-8-7-9--3---5-5-*-5-5-*-5\3--|

E--------------------------------------------------------|
B--------------------------------------------------------|
G--------------------------------------------------------|
D--1-1-*-1-1-*-1-1-*-1-1-8p7--3-3-*-3-3-*-3-3-*-3-3XXXX--|
A--1-1-*-1-1-*-1-1-*-1-1-8p7--3-3-*-3-3-*-3-3-*-3-3XXXX--|
D--1-1-*-1-1-*-1-1-*-1-1-8p7--3-3-*-3-3-*-3-3-*-3-3XXXX--|
[ Tab from: http://www.guitartabs.cc/tabs/t/thousand_foot_krutch/i_climb_tab.html ]
Chorus
E----------------------------------------------------|
B----------------------------------------------------|
G----------------------------------------------------|
D--5--5--5--5--0--0--0--0--6--6--6--6--1--1--1--1/3--|
A--5--5--5-5-0-0--0--0--6--6--6--6--1--1--1--1/3--|
D--5--5--5--5--0--0--0--0--6--6--6--6--1--1--1--1/3--|

E---------------------------------------------|
B---------------------------------------------|
G---------------------------------------------|
D--5--5--5--5--0--0--0--0--6-6--6--6XXX-6--6--|
A--5--5--5--5--0--0--0--0--6-6--6--6XXX-6--6--|
D--5--5--5--5--0--0--0--0--6-6--6--6XXX-6--6--|
				   |--Listen to Cd to figure out exactly how it goes
					This is just for show, lol.--|

Bridge
(Note: I'm not 100% sure that this part is correct so if you fix it, please put it in 
correction box)
E-------------------------------------------------------------------------|
B-------------------------------------------------------------------------|
G--777777777777-888888888888-101010101010101010101010-12-12--12-12-15/12--|
D--777777777777-888888888888-101010101010101010101010-12-12--12-12-15/12--|
A--555555555555-666666666666-8-8-8-8-8-8-8-8-8-8-8-8--10-10--10-10-13/10--|
D-------------------------------------------------------------------------|

E---------------------------------------------------------------|
B---------------------------------------------------------------|
G--777777777777-888888888888-555555555555-7--7--7--7--8---------| There's a bit
D--777777777777-888888888888-555555555555-7--7--7--7--8---------| of scratchin'
A--555555555555-666666666666-333333333333-5--5--5--5-6---------| but you can
D---------------------------------------------------------------| figure it out


Outro
E-----------------------------------------------------------|
B-----------------------------------------------------------|
G-----------------------------------------------------------|
D--5-----0-----6----1----3------5-----0----6-6-6--6XXX-6-6--|
A--5-----0-----6----1----3------5-----0----6-6-6--6XXX-6-6--|
D--5-----0-----6----1----3------5-----0----6-6-6--6XXX-6-6--|

Order:
Intro x2
Pre Chorus
Chorus x2
Intro x3
Pre Chorus_2
Chorus x2
Bridge
Chorus x2
Outro x2

Well that's it.

SSj
Comments