Thousand Foot Krutch - E For Extinction Chords & Tabs

 

Thousand Foot Krutch Chords & Tabs

Version: 1 Type: Tab 0 ratings
1 star 2 stars 3 stars 4 stars 5 stars
comments

E For Extinction Tab

 I seen a couple flaws in the other tabs for this song so im gonna fix what I know. I 
know the intro so sorry

 played in drop B(which is an awesome tuning)

                           Pre Chorus

 -----------------------------------------------------------------|
 -----------------------------------------------------------------|
 -----------------------------------------------------------------|
 ----0------------3----------5----------3----------2--------------|
 ----0-x8---------3-x8-------5-x8-------3-x4-------2-x3-----------|
 ----0------------3----------5----------3----------2--------------|


                             Chorus 1

      this part can be rough at first but
      remember, practice makes perfect
 -------------------------------------------|
 -------------------------------------------|
 -------------------------------------------|
 -0-3-2-0-2-3-2-0--3-2-0-2-3----------------|
 -0-3-2-0-2-3-2-0--3-2-0-2-3-x4-------------|
 -0-3-2-0-2-3-2-0--3-2-0-2-3----------------|
[ Tab from: http://www.guitartabs.cc/tabs/t/thousand_foot_krutch/e_for_extinction_tab.html ]
                              Chorus 2
               The last part is not exactley right so
               i jus said 5 because i know that it is
               used alot in that part. XD
 ---------------------------------------------------------------------|
 ---------------------------------------------------------------------|
 ------------5--------------------------------------------------------|
 -0----------5-x4-------5----------3----------5-----------------------|
 -0-x8-------3----------5-x4-------3-x8-------5-x8--------------------|
 -0---------------------5----------3----------5-----------------------|

   repeat verse,prechorus,chorus 1, and chorus 2

                          sick breakdown
 ----------------------------------------------------------------------|
 ----------------------------------------------------------------------|
 ----------------------------------------------------------------------|
 -0-3-2-0-5-3-2-3--------------------------------------/6--/6----------|
 -0-3-2-0-5-3-2-3-x12-or-x16-idk omg BLONDE MOMENT!!!--/6--/6----------|
 -0-3-2-0-5-3-2-3--------------------------------------/6--/6----------|

                       I know its not perfect but im tired and
                       i dont feel like doin anymore with it.
Comments