Thousand Foot Krutch - Come Along Chords & Tabs

 

Come Along Chords & Tabs

Thousand Foot Krutch Chords & Tabs

Version: 1 Type: Bass Tab 0 ratings
1 star 2 stars 3 stars 4 stars 5 stars
comments

Come Along Bass Tab

   
Need krutch btabs?? e-mail brw7877@hotmail.com

Drop D. Only use A & E (tuned as D) strings. 
Intro 

A------------5-0-3-2-----------5-0-3-2--3-33-33--5-0-3-2--3-33-35-3-2-0-2------ 
E--5-55-55----------2-22-22-------------------------------------------------------x2-5r 

r = let ring 

Verse 1 riff a 
A--------------33333333------------33333333 
E--55555555------------22222222---002244  repeat 4x 

[ Tab from: http://www.guitartabs.cc/tabs/t/thousand_foot_krutch/come_along_btab.html ]
Riff b 
A----------3--3-3--------3--3-3 
E--5--5-5---------2--2-2-------    (x2) 


Chorus 

A-----------3-3-3-3---------3-3-3-3 
E--5-5-5-5---------2-2-2-2---------    x4 

Bass/Guitar solo 

A----22----------22---------22------33333332 
E-5-----55-0-2-----55-0-0----55-0------------  x4 

Intro 

Verse 2 

A----2--3 
E--5----- x1    hold each not for a long time 

A-------------------------2222222233333333 
E--555555555555555-------------------------  x2 

A--------------------------2----33r 
E--5555555555555555--------- 

Chorus 
Comments