Thousand Foot Krutch - Break The Silence Chords & Tabs

 

Break The Silence Chords & Tabs

Thousand Foot Krutch Chords & Tabs

Version: 1 Type: Tab 0 ratings
1 star 2 stars 3 stars 4 stars 5 stars
comments

Break The Silence Tab

Break The Silence
Thousand Foot Krutch
Album: Phenomenon 2003 Tooth and Nail
Tabbed by: Sam Stranks - sam_stranks@hotmail.com


Order is:
Intro Riff x2
Verse Riff x2
Chorus Riff x2
Verse Riff x2
Chorus Riff x4
Bridge Riff x3
Bridge2 Riff x1
Chorus Riff x4
Ending Riff
*listen to cd if still unsure how many times to play each riff

Intro Riff:
E---------------------------------------------------------------------|
B---------------------------------------------------------------------|
G---------7---------------5-------------------------10-10-10-10-------|
D-0-0---0-7---0---0-0---0-5---0---5-------7----------8--8--8--8-------|
A-0-0---0-5---0---0-0---0-3---0---5-------5----------8--8--8--8-------|
D-0-0---0-0---0---0-0---0-0---0---5-------5---------------------------|


Verse Riff:
E----------------------------------------------------------------|
B----------------------------------------------------------------|
G----------------------------------------------------------------|
D-7---0-----0-----0-----0-----0---6---0-----0-----0-----0-----0--|
A-7---0-----0-----0-----0-----0---6---0-----0-----0-----0-----0--|
D-7---0-----0-----0-----0-----0---6---0-----0-----0-----0-----0--|
[ Tab from: http://www.guitartabs.cc/tabs/t/thousand_foot_krutch/break_the_silence_tab.html ]
E----------------------------------------------------------------|
B----------------------------------------------------------------|
G----------------------------------------------------------------|
D-7---0-----0-----0-----0-----0---3---0-----0-----0-----0-----0--|
A-7---0-----0-----0-----0-----0---3---0-----0-----0-----0-----0--|
D-7---0-----0-----0-----0-----0---3---0-----0-----0-----0-----0--|


Chorus Riff:
E----------------------------------------------------------------|
B----------------------------------------------------------------|
G-----------------5---5---5---5----------------------------------|
D-0---0---0---0---5---5---5---5---5---5---5---5---8---8---8---8--|
A-0---0---0---0---3---3---3---3---5---5---5---5---8---8---8---8--|
D-0---0---0---0-------------------5---5---5---5---8---8---8---8--|
*These are just the basic chords, you can add alot of stuff (listen to cd)


Bridge Riff:
E--------------------------------------------------------------------|
B--------------------------------------------------------------------|
G----------------------------------------------------10--10---9---9--|
D-8---8---8---8---10---10---10---10---0---0---0---0---0---0---0---0--|
A-8---8---8---8---10---10---10---10---0---0---0---0---0---0---0---0--|
D-8---8---8---8---10---10---10---10---0---0---0---0---0---0---0---0--|


Bridge2 riff:
D-3---3---1-------0----------------|
A-3---3---1-------0----------------|
D-3---3---1-------0----------------|


Ending Riff:
D-0--
A-0--
D-0--
*This is played just once on the first half of the ending and played over and over again on the second half
Comments