Thousand Foot Krutch - Be Somebody Chords & Tabs

 

Thousand Foot Krutch Chords & Tabs

Version: 1 Type: Tab 0 ratings
1 star 2 stars 3 stars 4 stars 5 stars
comments

Be Somebody Tab

   
-------------------------------------------------------------------------------
                                          Be Somebody - Thousand Foot Krutch
-------------------------------------------------------------------------------
Tabbed by: oogah33

Tuning: Drop D

Intro/Verse:
e|---------------------------------------------------------------------------|
B|---------------------------------------------------------------------------|
G|--2-------2--------2--1---------2--1---------------------------------------|
D|--------0-----------------2-----------1------------------------------------|
A|---------------------------------------------------------------------------|
D|-----------------4------------4--------------------------------------------| x2


Verse (x2) - Lead:

e|---------------------------------------------------------------------------|
B|-----------------------------------------------------2---------------------|
G|-----2----1-------2----1-------2----1------2----1-------2---1--------------|
D|---0----2-------0----2------------2-----------2----------------2-----------|
A|---------------------------------------------------------------------------|
D|-----------------------------4-----------4---------------------------------|

e|---------------------------------------------------------------------------|
B|-----------------------------------------------------2---------------------|
G|-----2----1-------2----1-------2----1------2----1-------2---1--------------|
D|---0----2-------0----2----2--------2-----------2----------------2-----------|
A|---------------------------------------------------------------------------|
D|-----------------------------4-----------4---------------------------------|

Verse (Only second time, Strum accordingly) - Rhythm: 
e|---------------------------------------------------------------------------|
B|---3---------------------------------3-------------------------------------|
G|---2----------------6----------------2----------------6--------------------|
D|---0----------------4----------------0----------------4--------------------|
A|---0----------------4----------------0----------------4--------------------|
D|---0----------------4----------------0----------------4--------------------|


Chorus (Rhythm):
e|---------------------------------------------------------------------------|
B|---------------------------------------------------------------------------|
G|---------------------------------------------------------------------------|
D|--0-0-0-0-0-0-0-0-2-2-2-2-2-2-2-2-4-4-4-4-4-4-4-4-2-2-2-2-2-2-2-2----------|
A|--0-0-0-0-0-0-0-0-2-2-2-2-2-2-2-2-4-4-4-4-4-4-4-4-2-2-2-2-2-2-2-2----------|
D|--0-0-0-0-0-0-0-0-2-2-2-2-2-2-2-2-4-4-4-4-4-4-4-4-2-2-2-2-2-2-2-2----------| x2


Chorus (Lead) x2:
e|----------------------------------9-9-9-9----------------------------------|
B|--12p10h12--10-10-10-10--12p10h12---------12p10h12--10-10-10-10------------|
G|---------------------------------------------------------------------------|
D|---------------------------------------------------------------------------|
A|---------------------------------------------------------------------------|
D|---------------------------------------------------------------------------|

e|---------------------------------------------------------------------------|
B|--12p10h12--10-10-10-10----------------------------------------------------|
G|---------------------------------------------------------------------------|
D|---------------------------------------------------------------------------|
A|---------------------------------------------------------------------------|
D|---------------------------------------------------------------------------|


Post Chorus:
e|---------------------------------------------------------------------------|
B|---------------------------------------------------------------------------|
G|---------------------------------------------------------------------------|
D|-----0---------------------------4-----------------------------------------|
A|-----0---------------------------4-----------------------------------------|
D|-----0---------------------------4-----------------------------------------|
[ Tab from: http://www.guitartabs.cc/tabs/t/thousand_foot_krutch/be_somebody_tab.html ]
Verse 2 (Part 1) - Lead:
e|---------------------------------------------------------------------------|
B|---------------------------------------------------------------------------|
G|-----2-------2---------2--1---------2--1-----------------------------------|
D|---0-------0-----------------2------------2--------------------------------|
A|---------------------------------------------------------------------------|
D|---------------------4------------4----------------------------------------| x2

Verse 2 (Part 2) - Lead (x2):
e|---------------------------------------------------------------------------|
B|-----------------------------------------------------2---------------------|
G|-----2----1-------2----1-------2----1------2----1-------2---1--------------|
D|---0----2-------0----2------------2-----------2----------------2-----------|
A|---------------------------------------------------------------------------|
D|-----------------------------4-----------4---------------------------------|

e|---------------------------------------------------------------------------|
B|-----------------------------------------------------2---------------------|
G|-----2----1-------2----1-------2----1------2----1-------2---1--------------|
D|---0----2-------0----2----2--------2-----------2----------------2-----------|
A|---------------------------------------------------------------------------|
D|-----------------------------4-----------4---------------------------------|

Verse 2: (Only second time, Strum accordingly) - Rhythm: 
e|---------------------------------------------------------------------------|
B|---3---------------------------------3-------------------------------------|
G|---2----------------6----------------2----------------6--------------------|
D|---0----------------4----------------0----------------4--------------------|
A|---0----------------4----------------0----------------4--------------------|
D|---0----------------4----------------0----------------4--------------------|

Chorus (Rhythm):
e|---------------------------------------------------------------------------|
B|---------------------------------------------------------------------------|
G|---------------------------------------------------------------------------|
D|--0-0-0-0-0-0-0-0-2-2-2-2-2-2-2-2-4-4-4-4-4-4-4-4-2-2-2-2-2-2-2-2----------|
A|--0-0-0-0-0-0-0-0-2-2-2-2-2-2-2-2-4-4-4-4-4-4-4-4-2-2-2-2-2-2-2-2----------|
D|--0-0-0-0-0-0-0-0-2-2-2-2-2-2-2-2-4-4-4-4-4-4-4-4-2-2-2-2-2-2-2-2----------| x2


Chorus (Lead) x2:
e|----------------------------------9-9-9-9----------------------------------|
B|--12p10h12--10-10-10-10--12p10h12---------12p10h12--10-10-10-10------------|
G|---------------------------------------------------------------------------|
D|---------------------------------------------------------------------------|
A|---------------------------------------------------------------------------|
D|---------------------------------------------------------------------------|

e|---------------------------------------------------------------------------|
B|--12p10h12--10-10-10-10----------------------------------------------------|
G|---------------------------------------------------------------------------|
D|---------------------------------------------------------------------------|
A|---------------------------------------------------------------------------|
D|---------------------------------------------------------------------------|

Outro:
e|---------------------------------------------------------------------------|
B|---------------------------------------------------------------------------|
G|--2-------2--------2--1---------2--1---------------------------------------|
D|--------0-----------------2-----------1------------------------------------|
A|---------------------------------------------------------------------------|
D|-----------------4------------4--------------------------------------------|

e|---------------------------------------------------------------------------|
B|---------------------------------------------------------------------------|
G|--2-------2--------2--1---------2------------------------------------------|
D|--------0-----------------2------------------------------------------------|
A|---------------------------------------------------------------------------|
D|-----------------4------------4--------------------------------------------|


************************************

| /   slide up
| \   slide down
| h   hammer-on
| p   pull-off
| ~   vibrato
| +   harmonic
| x   Mute note
| b   Bend
| pb  Pre-bend
| br  Bend release
| pbr Pre-bend release
| brb Bend release bend

************************************
Comments