Thought Riot - All For God And A Gun For All Chords & Tabs

 

All For God And A Gun For All Chords & Tabs

Thought Riot Chords & Tabs

Version: 1 Type: Tab 0 ratings
1 star 2 stars 3 stars 4 stars 5 stars
comments

All For God And A Gun For All Tab

www.thoughtriot.com

Justin Lambert (change_of_face2@hotmail.com) 

strums not shown 

(7) play 1 strum 
x dead notes 
/slide down 
Intro 
e|---------------------------------------------------------------------------| 
B|---------------------------------------------------------------------------| 
G|-10-9-10--9-10--9----------------------------------------------------------| 
D|-x--x--x--x--x--x----------------------------------------------------------| 
A|-8--7--8--7--8--7----------------------------------------------------------| 
E|---------------------------------------------------------------------------| 

Chours 
e|---------------------------------------------------------------------------| 
B|---------------------------------------------------------------------------| 
G|------(9)-(10)-12-(10)(9)--------------------------------------------------| 
D|------(x)-(x)--x--(x)-(x)--------------------------------------------------| 
A|-7-10-(7)-(8)--10-(8)-(7)--(play intro)---3--------------------------------| 
E|-5-8--------------------------------------1-(guitar 2)---------------------| 
[ Tab from: http://www.guitartabs.cc/tabs/t/thought_riot/all_for_god_and_a_gun_for_all_tab.html ]
Verse 
e|---------------------------------------------------------------------------| 
B|---------------------------------------------------------------------------| 
G|---------------------------------------------------------------------------| 
D|---------------------------------------------------------------------------| 
A|-77xxxxxxx-77xxxxxxx-5-77xxxxxxx-77xxxxxxx-5-8-----------------------------| 
E|-55xxxxxxx-55xxxxxxx-3-55xxxxxxx-55xxxxxxx-3-6-----------------------------| 

Repeat Chours 
e|---------------------------------------------------------------------------| 
B|---------------------------------------------------------------------------| 
G|---------------------------------------------------------------------------| 
D|---------------------------------------------------------------------------| 
A|-7--------------7----------------------------------------------------------| 
E|-5-pickscrape---5-pickscrape-----------------------------------------------| 

Solo 
Havent figured it all out yet but ill post it when i do which will be soon 

Chours 

End 
e|---------------------------------------------------------------------------| 
B|---------------------------------------------------------------------------| 
G|---------------------------------------------------------------------------| 
D|---------------------------------------------------------------------------| 
A|-7-/-3---------------------------------------------------------------------| 
E|-5-/-1---------------------------------------------------------------------| 

Not 100% correct but no tabs are and its better than no tabs for the song at all. 
Ill finish it off soo. E-mail me with any corrections!
Comments